Song name
# A B C D E F G H I J K L M N O P Q R S T U V W X Y Z

Tomahawk - When The Stars Begin To Fall tab

|--------------------------------------------------|
|--------------------------------------------------|
|--------------------------------------------------|
|--------------------------------------------------|
|--------------------------------------------5-----|
|-----3-0-3--555--6---------3-0-3-----555--6-------|

|--------------------------------------------------|
|--------------------------------------------------|
|--------------------------------------------------|
|--------------------------------------------------|
|--------------------------------------------------|
|----0-3-----555--6---------3-0-3---4-0-3-4--------|

|---------------------------------------------------|
|---------------------------------------------------|
|---------------------------------------------------|
|---------------------------------------------------|
|-------------------------------------------5-------|
|----0-3-----555--6---------3-0-3-----555--6--------|

|------------------------------------------------------|
|------------------------------------------------------|
|------------------------------------------------------|
|------------------------------------------------------|
|------------------------------------------------------|
|----0-3-----555--6---------3-0-3---4-0-3-4-----0--3---|

|-----------------------------------------------------|
|-----------------------------------------------------|
|------7---7--7--7----5-------------------------------|
|------7---7--7--7----5-------------------------------|
|------5---5--5--5----3-----5\7-----------------------|
|---------------------------3\5-----------------------|     x2

|------------------------------------------------------|
|------------------------------------------------------|
|------------------------------------------------------|
|-----2-2-2-2-2----------------------------------------|
|-----2-2-2-2-2--------2\3-----------------------------|
|-----0-0-0-0-0-0------2\3-----------------------------|
|----------------------2\3-----------------------------|
Tap to rate this tab
# A B C D E F G H I J K L M N O P Q R S T U V W X Y Z