Song name
# A B C D E F G H I J K L M N O P Q R S T U V W X Y Z

Tomahawk - God Hates A Coward tab

-----------------------------------------------------------------------------
                             God Hates A Coward - Tomahawk
-----------------------------------------------------------------------------
Tabbed by:tmv91

Tuning:Standard

 Verse (I sow my seed...): its all downstrokes
 P.M.-------------------------------------------------------------------->
e|--------------------------------------------------------------------------|
B|--------------------------------------------------------------------------|
G|--------------------------------------------------------------------------|
D|-6---6---------7---7-------------8---8---------4---4----------------------|
A|-4-4-4-4-5-4-4-4-4-4-5-4-5-4-4-4-4-4-4-4-5-4-4-4-4-4-5-4-7-7-7-7----------|
E|---------------------------------------------------------5-5-5-5----------|
 P.M.-------------------------------------------------------------------->
e|--------------------------------------------------------------------------|
B|--------------------------------------------------------------------------|
G|--------------------------------------------------------------------------|
D|--------------------------------------------------------------------------|
A|-6---6---------7---7-------------8---8---------4---4-----2-2-2-2----------|
E|-4-4-4-4-5-4-4-4-4-4-5-4-5-4-4-4-4-4-4-4-5-4-4-4-4-4-5-4-0-0-0-0----------|
 
 Verse variation
 P.M. everything except for on struck chords
e|--------------------------------------------------------------------------|
B|--------------------------------------------------------------------------|
G|--------------------------------------------------------------------------|
D|-6---6---------7---7-------------8---8---------4---4-----7-7-7-7----------|
A|-4-4-4-4-5-4-4-4-4-4-5-4-5-4-4-4-4-4-4-4-5-4-4-4-4-4-5-4-x-x-x-x----------|
E|---------------------------------------------------------5-5-5-5----------|
                                                  *-end here at right time
e|------------------------------------------------|-------------------------|
B|------------------------------------------------|-------------------------|
G|------------------------------------------------|-------------------------|
D|------------------------------------------------|-------------------------|
A|-6---6---------7---7-------------8---8---------4|--4-----2-2-2-2----------|
E|-4-4-4-4-5-4-4-4-4-4-5-4-5-4-4-4-4-4-4-4-5-4-4-4|4-4-5-4-0-0-0-0----------|

 Chorus - again play with down strokes
e|--------------------------------------------------------------------------|
B|--------------------------------------------------------------------------|
G|-6--6-6-6-6-6-6--6-6-6-6-6-6-6-6--6-6-6-6-6-6--6-6-6----------------------|
D|-6--6-6-6-6-6-7--7-7-7-7-7-7-7-8--8-8-8-8-8-4--4-4-4-7-7-7-7--------------|
A|-4--4-4-5-4-4-4--4-5-4-5-4-4-4-4--4-4-5-4-4-4--4-5-4-7-7-7-7--------------|
E|-----------------------------------------------------5-5-5-5--------------|

e|--------------------------------------------------------------------------|
B|--------------------------------------------------------------------------|
G|--------------------------------------------------------------------------|
D|-6--6-6-6-6-6-6--6-6-6-6-6-6-6-6--6-6-6-6-6-6--6-6-6-2-2-2-2--------------|
A|-6--6-6-6-6-6-7--7-7-7-7-7-7-7-8--8-8-8-8-8-4--4-4-4-2-2-2-2--------------|
E|-4--4-4-5-4-4-4--4-5-4-5-4-4-4-4--4-4-5-4-4-4--4-5-4-0-0-0-0--------------|

 "Listen closer to your mother" - Palm Muted
e|----------------|
B|----------------|
G|----------------|
D|----------------|
A|-4-4-----4-4----|
E|-2-2-----2-2----|
 Last chord of breakdown
e|--------------------------------------------------------------------------|
B|--------------------------------------------------------------------------|
G|-1~-----------------------------------------------------------------------|
D|-2~-----------------------------------------------------------------------|
A|-2~-----------------------------------------------------------------------|
E|-0~-----------------------------------------------------------------------|

Repeat Verse and Chorus

************************************

| /   slide up
| \   slide down
| h   hammer-on
| p   pull-off
| ~   vibrato
| +   harmonic
| x   Mute note
| b   Bend
| pb  Pre-bend
| br  Bend release
| pbr Pre-bend release
| brb Bend release bend

************************************
Tap to rate this tab
# A B C D E F G H I J K L M N O P Q R S T U V W X Y Z