Song name
# A B C D E F G H I J K L M N O P Q R S T U V W X Y Z

Tomahawk - Mescal Rite tab

-------------------------------------------------------------------------------
			     MESCAL RITE - Tomahawk
-------------------------------------------------------------------------------


Tabbed by: Martin


Tuning: Standard


Part I

-----
-----
-----
--6--
--6--
--4--

Part II

(0:14)

------------------------------------------------------------------------|
-------------6-6--------------------------------------------------------|
--5-5-5-5--5-----5-5-5-------------------------5---5-----5-5-3----------|
-----------------------8-6-6-6-5----6-6-6-6--6---8---8-6-------3--3--3--|
---------------------------------8-----------------------------3--3--3--|
---------------------------------------------------------------1--1--1--|

Part III

(0:24)

-------------------------------------------------------------------------------|
-------------------------------------------------------------------------------|
-------------5---5-----5-5--3--------------------------3-5---------------------|
--6-6-6-6--6---8---8-6--------3-3-3-------3-3-3-3--3-6-----3-3-3---------------|
------------------------------------6-3--------------------------6-3-3-3-------|
--------------------------------------------------------------------------6-4--|

Part IV

(Part II an octave lower)

(0:32)

----------------------------------------------------------------------|
----------------------------------------------------------------------|
----------------------------------------------------------------------|
-------------3-3-----------------------------------------------3-3-3--|
--3-3-3-3--3-----3-3-3-------------------------3---3-----3-3---3-3-3--|
-----------------------6-4-4-4-3-1--4-4-4-4--4---6---6-4-------1-1-1--|

Part V

(1:25)

-------------------------|
----4-6-----4-6-----4-6--|
--3-------3-------3------|
-------------------------|
-------------------------|
-------------------------|

Part VI

(1:34)

-----
-----
-----
--5--
--5--
--3--
Tap to rate this tab
 
# A B C D E F G H I J K L M N O P Q R S T U V W X Y Z