Song name
# A B C D E F G H I J K L M N O P Q R S T U V W X Y Z

Tomahawk - Red Fox tab

-------------------------------------------------------------------------------
			     RED FOX - Tomahawk
-------------------------------------------------------------------------------


Tabbed by: Martin


Tuning: Standard


Part I

-----------------------------------------------|
-----------------1-------------------------1---|
-----------------------------------------------|
-4--4-2-4--4-2-4-----4--4-2-4--4-2-4--4-2-4----|
-4--4-2-4--4-2-4-----4--4-2-4--4-2-4--4-2-4----|
-2--2-0-2--2-0-2-----2--2-0-2--2-0-2--2-0-2----|

Part II

(0:19)

-----------------------------------------------------------------------|
--7---7--7-------7-----------------------------------------------------|
----6------6-6-4--6--6-4-4---6-4--4---------------------4-4------------|
---------------------------7--------7-7-4-7-7--4-4-4--7-----7-7-4-7-7--|
-----------------------------------------------4-4-4-------------------|
-----------------------------------------------2-2-2-------------------|

Part III

(0:32)

------------------------------------------------------------------------|
--7---7--7-------7------------------------------------------------------|
----5------5-5----5--5-------5------------------------------------------|
---------------8-------8-8-7---8--8-7-7---7-7--4-4-4--7-8-8-7-7---7--7--|
----------------------------------------9------4-4-4------------9-------|
-----------------------------------------------2-2-2--------------------|

Part IV

(1:08)

---------------------|
---------------------|
------2-----2-3-2-3--|
--4-2---4-2----------|
---------------------|
---------------------|

Part IV

(2:53)

--------------------------|
--------------------------|
--------------------------|
--4--4-2-4--4-2-4--4-2-4--|
--4--4-2-4--4-2-4--4-2-4--|
--2--2-0-2--2-0-2--2-0-2--|
Tap to rate this tab
# A B C D E F G H I J K L M N O P Q R S T U V W X Y Z