Song name
# A B C D E F G H I J K L M N O P Q R S T U V W X Y Z

Tomahawk - Antelope Ceremony tab

-------------------------------------------------------------------------------
			     ANTELOPE CEREMONY - Tomahawk
-------------------------------------------------------------------------------


Tabbed by: Martin


Tuning: Standard


Part I

----------------------------------------------------------------------|
----------------------------------------------------------------------|
----4------------6p4-6p4----------------------------------------------|
--4---6p4-6p4--4------------------------2-----------------2-----------|
-------------------------4p2-4p2---2--2----4p2-4p2---2--2----4p2-4p2--|
----------------------------------------------------------------------|

--------------------------------------------|
--------------------------------------------|
--------------------------------------------|
--------2-----------------------------------|
---2--2---4p2-4p2-4p2-4p2-------4p2--2---2--|
--------------------------4-4-4-------------|

Part II

(0:15)

---------------------------------------------------------------------------|
---------------------------------------------------------------------------|
----4------------6p4-6p4---------------------------------------------------|
--4---6p4-6p4--4------------------------2-------------------2-2------------|
-------------------------4p2-4p2---2--2----4p2-4p2-2-2----2-----4p2-4p2-2--|
---------------------------------------------------------------------------|

----------------------------------------------------|
----------------------------------------------------|
----------------------------------------------------|
----2-----------------------------------------------|
--2---4p2-4p2-4p2-4p2-------4p2--2---2--------------|
----------------------4-4-4----------------2--2--2--|

Part III
(Part I played an octave higher)

(0:30)

----7------------9p7-9p7---------------------------------------------|
--7---9p7-9p7--7------------------------5-----------------5----------|
-------------------------6p4-6p4---4--4----6p4-6p4---4--4---6p4-6p4--|
---------------------------------------------------------------------|
---------------------------------------------------------------------|
---------------------------------------------------------------------|

--------------------------------------------|
--------5-----------------------------------|
---4-4----6p4-6p4-6p4-6p4-------6p4--4---4--|
--------------------------6-6-6-------------|
--------------------------------------------|
--------------------------------------------|

Part IV
(Part II played an octave higher)

(0:45)

----7------------9p7-9p7---------------------------------------------------|
--7---9p7-9p7--7------------------------5-------------------5-5------------|
-------------------------6p4-6p4---4--4----6p4-6p4-4-4----4-----6p4-6p4-4--|
---------------------------------------------------------------------------|
---------------------------------------------------------------------------|
---------------------------------------------------------------------------|

-------------------------------------------------|
----5--------------------------------------------|
--4---6p4-6p4-6p4-6p4-------6p4--4---4-----------|
----------------------6-6-6-------------4--4--4--|
-------------------------------------------------|
-------------------------------------------------|
Tap to rate this tab
 
# A B C D E F G H I J K L M N O P Q R S T U V W X Y Z