Song name
# A B C D E F G H I J K L M N O P Q R S T U V W X Y Z

Tomahawk - Song Of Victory tab

-------------------------------------------------------------------------------
			     SONG OF VICTORY - Tomahawk
-------------------------------------------------------------------------------


Tabbed by: Martin


Tuning: Standard


Part I

------------------------------------------------------------------------|
------------------------------------------------------------------------|
--5-5-5--6-5-6-5-6-5--5-5---------6--5-------5-5-5----------------------|
--------------------------6-6----------6-6----------7-5----------7-5----|
------------------------------8-8----------8------------8-8----------8--|
------------------------------------------------------------8-8---------|

-----------------------------|
-----------------------------|
-----------------------------|
--7-7-7-5--------------------|
----------8--8---------------|
---------------8-8-8-8--8-8--|

Part II

(0:10)

-------------------------------------------------------------------------|
-------------------------------------------------------------------------|
----6-5-5-6-5-6-5-6-5--5-5---------6--5-------5-5-5----------------------|
---------------------------6-6----------6-6----------7-5----------7-5----|
---8---------------------------8-8----------8------------8-8----------8--|
------------------------------------------------------------8-8----------|

-----------------------------|
-----------------------------|
-----------------------------|
--7-7-7-5--------------------|
----------8--8---------------|
---------------8-8-8-8--8-8--|

Part III

(0:20)

--8-----------9-8-----------------------------------------------------|
----9-9-----------9-9----9-------------10---9-------------------------|
--------10-10---------10---10-10--------------10-10----9--------------|
---------------------------------11-11--------------11---10-10--------|
---------------------------------------------------------------11-11--|
----------------------------------------------------------------------|

-----------------------------------------------|
-----------------------------------------------|
--10-9----------9-------------------------8-8--|
-------10-10------10---10-------------9-9------|
-------------11-----------11-11-10-10----------|
-----------------------------------------------|

Part IV

(0:26)

--8-----------9-8-----------------------------------------------------------------------|
----9-9-----------9-9----9-------------10---9-------------------------------------------|
--------10-10---------10---10-10--------------10-10----9-------------10-9----------9----|
---------------------------------11-11--------------11---10-10------------10-10------10-|
---------------------------------------------------------------11-11------------11------|
----------------------------------------------------------------------------------------|

---------------------------------------------------------------------------------|
---------------------------------------------------------------------------------|
---------------------8-8-9-9---------------10-9----------9-----------------------|
--10-------------9-9---------10-10--------------10-10------10-10-------------9-9-|
-----11-11-10-10---------------------11-11------------11---------11-11-10-10-----|
---------------------------------------------------------------------------------|


--------------------------------------------------------------------------|
--------------------------------------------------------------------------|
--8-8-9-9-----------------------8-8-9-9-------------------------8-8-9-9---|
----------10-10-------------9-9-----------10-10-------------9-9-----------|
----------------11-11-10-10---------------------11-11-10-10---------------|
--------------------------------------------------------------------------|

-------------------------------7-7----|
---------------------------8-8--------|
------------------------8-8-----------|
--10-10-------------9-9---------------|
--------11-11-10-10-------------------|
--------------------------------------|
Tap to rate this tab
# A B C D E F G H I J K L M N O P Q R S T U V W X Y Z