Guitaretab - guitar tabs
Song name
# A B C D E F G H I J K L M N O P Q R S T U V W X Y Z

Tomahawk - Omaha Dance tab

-------------------------------------------------------------------------------
			     OMAHA DANCE - Tomahawk
-------------------------------------------------------------------------------


Tabbed by: Martin


Tuning: Standard


Part I
[ Tab from: http://www.guitaretab.com/t/tomahawk/91606.html ]
---------------------------------------------------------------------------|
--13--11-11----------------------------------------------------------------|
-------------12-12--12-12--10-10-------------------------------------------|
---------------------------------12-12--10-10--8-8-------------------------|
---------------------------------------------------10-10--10-10-8-8--------|
--------------------------------------------------------------------10-10--|

Part II

(1:10)

----------------------------------------------------------------------------------|
--------------------------------------------------------------11-11--10-10--------|
--10-10--8-8----------13-13--12-12---------10-10--8-8----------------------11-11--|
--------------10--10----------------13-13-------------10--10----------------------|
----------------------------------------------------------------------------------|
----------------------------------------------------------------------------------|
Related for Omaha Dance tab
Advertisement will be closed in 10 seconds