Song name
# A B C D E F G H I J K L M N O P Q R S T U V W X Y Z

Tomahawk - God Hates A Coward tab

e|--------------------------------------------------------------|
A|--------------------------------------------------------------|
D|--------------------------------------------------------------|
G|-4-4-4-4--5-5-5-5-5-5--6-6-6-6--2-2---------------------------|
B|-2-2-3-2--2-2-2-2-3-2--2-2-3-2--2-2--5-5-5-5-5----------------|
E|-------------------------------------3-3-3-3-3----------------|

e|--------------------------------------------------------------|
A|--------------------------------------------------------------|
D|--------------------------------------------------------------|
G|--------------------------------------------------------------|
B|-4-4-4-4--5-5-5-5-5-5--6-6-6-6--2-2---------------------------|
E|-2-2-3-2--2-2-2-2-3-2--2-2-3-2--2-2---------------------------|

I know that this is 100% right...if you have any questions e-mail me, guitarist_freak13@yahoo.com
Tap to rate this tab
 
# A B C D E F G H I J K L M N O P Q R S T U V W X Y Z