Song name
# A B C D E F G H I J K L M N O P Q R S T U V W X Y Z

Tomas Andersson Wij - Evighet tab

Inskickad av: Jimmy
Epost: deukalion666@hotmail.com

Artist: Tomas Andersson Wij
Låt: Evighet
Album: En introduktion

 (Tabbad av Deukalion)


 CAPO: 1

Notera: Hela spelet funger med låten, det är inte på pricken antar jag 
men det är i så fall de små basgångarna som blir svåra att höra när han 
sjunger. Utöver det så fungerar låten väldigt bra att spela.

   INTRO
 |-------------------------------------------------------------------|
 |-------0-----0---------0-----0---------0-----0---------0-----0-----|
 |-----0-----0-----0---0-----0-----0---0-----0-----0---0-----0-----0-|
 |-2/5-----4-----2-------------------------2-----2---------2-----2---|
 |-------------------3-----2-----0-----------------------------------|
 |-----------------------------------0---------------0---------------|


   VERS
 |-------------------------------------------------------------------|
 |-----0-----0---------1-----1---------0-----0---------3-----3-------|
 |---0-----0-----0---0-----0-----0---0-----0-----0---2-----2-----0---|
 |-------2-----2---------2-----0---------0-----0---------0-----0-----|
 |-----------------3-------------------------------------------------|
 |-0-------------------------------3---------------2-----------------|

 |-------------------------------------------------------------------|
 |-----0-----0---------1-----1---------0-----0---------3-----3-------|
 |---0-----0-----0---0-----0-----0---0-----0-----0---2-----2-----0---|
 |-------2-----2---------2-----0---------0-----0---------0-----0-----|
 |-----------------3-------------------------------------------------|
 |-0-------------------------------3---------------2-----------------|

 |-------------------------------------------------------------------|
 |-----0-----0---------1-----1---------0-----0---------3-----3-------|
 |---0-----0-----0---0-----0-----0---0-----0-----0---2-----2-----0---|
 |-------2-----2---------2-----0---------0-----0---------0-----0-----|
 |-----------------3-------------------------------------------------|
 |-0-------------------------------3---------------2-----------------|

 |-------------------------------------------------------------------|
 |-----3-----3---------3-----3---------3-----3---------3-------1-----|
 |---0-----0-----0---0-----0-----0---2-----2-----2---2-------0---0---|
 |-------2-----0---------2-----0---------0-----0---------0-----------|
 |-3---------------3---------------------------------------3---------|
 |---------------------------------2---------------2-----------------|

  REFRÄNG
   G                       G/F#    Em                      Am      
 |-----------------------------------------------------------------|
 |-----0-----0---------0-------0-------0-----0---------0-------1---|
 |---0-----0-----0---0-------0-------0-----0-----0---0-------2-----|
 |-------0-----0-------------------------2-----2---------2-------2-|
 |---------------------------------------------------------0-------|
 |-3---------------3-----3-2-----2-0---------------0---------------|


   Em              D/F#  D         Cadd9                   D/F#
 |-----------------------------------------------------------------|
 |-----0-----0---------3-----3---------3-----3---------3-------3---|
 |---0-----0-----0---2-----2-----2---0-----0-----0---0-------2-----|
 |-------2-----2---------0-----0---------2-----2---------2---------|
 |---------------------------------3---------------3---------------|
 |-0---------------2---------------------------------------2-----2-|


 Em                    C       G      D
Det finns i varje andetag, i varje steg
 Em           C         G       D
som himlen bär en evighet, åh, åh
 Em                    C       G         D
Tiden den står stilla nu, när vi rör varann
                Cadd9             D
mitt hjärta brinner när kärlek vinner
        G      G/F#    Em
En evighet, en kort sekund
     Am     Em   D          Cadd9
när vi blir ett med tid och rum
    D/F#   G   G/F#  Em
Ett ögonblick, oändlighet
      Am     Em  D    Cadd9
långt bortom allt i evighet


Em              C             G            D
Jag skulle alltid stanna här, för här är jag fri
 Em       C       G       D
du är den värld jag lever i
Em                   C        G           D
Och inget kan stoppa mig, det blåser en vind
                Cadd9              D
i hjärtan som brinner när kärlek vinner
        G      G/F#    Em
En evighet, en kort sekund
     Am     Em   D          Cadd9
när vi blir ett med tid och rum
    D/F#   G   G/F#  Em
Ett ögonblick, oändlighet
      Am     Em  D    Cadd9
långt bortom allt i evighet




Tap to rate this tab
# A B C D E F G H I J K L M N O P Q R S T U V W X Y Z