Song name
# A B C D E F G H I J K L M N O P Q R S T U V W X Y Z

Tomas Ledin - Hll Ut chords

Highlighted       Show chord diagrams
Songwriter: Tomas Ledin & Lasse Andersson
Tabed by: Jeppe

Capo on 3rd

Intro

Guitar riff
e---------------------------------------------------|
B--2-3-3-2-3-3-2-3----------2-3-3-2-3-3-2-3---------|
G--2-2-2-2-2-2-2-2----------2-2-2-2-2-2-2-2---------|
D--0-0-0-0-0-0-0-0----------------------------------| x 2
A---------------------------2-2-2-2-2-2-2-2---------|
E---------------------------------------------------|

Second time the chords enter

D  |G/F# G  A|Bm  |Bm

Verse 1
        D               G/F# G
När ska mörkret ta slut
    A        Bm
Och vinterns kyla ge sig av
     D                 G/F# G

Allt faller liksom snö
    A      Bm
Och det är tyst som i en grav

Brygga 1
      A
Varje morgon mitt emot mig
      Em
Samma längtan i din blick
          A
Du tittar ut genom vårt fönster
            Em      G   A
Tänk att få vakna i ljus

Chorus
D              A
 Håll ut, tiden är vår vän
G
 Håll ut, kommer snart med solen
D                A                Em       G
 Håll ut, vi ska klara det här tillsammans
D               A
 Håll ut, några veckor till
G
 Håll ut, livet vänder i april
Em              A         D
 Kom och håll om mig, håll ut

Interlude

e---------------------------------------------------|
B--2-3-3-2-3-3-2-3----------2-3-3-2-3-3-2-3---------|
G--2-2-2-2-2-2-2-2----------2-2-2-2-2-2-2-2---------|
D--0-0-0-0-0-0-0-0----------------------------------|
A---------------------------2-2-2-2-2-2-2-2---------|
E---------------------------------------------------|

D  |G/F# G  A|Bm  |Bm

Verse 2
          D                 G/F#  G
Hur länge ska vi halka fram
            Bm
På allt för isig trottoar
     D                  G/F#  G
Mina kinder domnar bort
        Bm
Men min vilja den finns kvar

Bridge 2
           A
Vi skyndar hemåt innan mörkret
      Em
Snåla vindar ligger på
            A
Du drar din kappa tätt intill dig
            Em       G  A
Tänk och få gå här i ljus

Chorus
D              A
 Håll ut, tiden är vår vän
G
 Håll ut, kommer snart med solen
D                A                Em       G
 Håll ut, vi ska klara det här tillsammans
D               A
 Håll ut, några veckor till
G
 Håll ut, livet vänder i april
Em              A         D
 Kom och håll om mig, håll ut

G/F# G  |G  |G/F# G |G

Bridge 3
G/F# G
      Vi ska kämpa, jag vet att vi kan
G/F# G
      Vi ska klara det, ta oss  fram
G/F# G                                   Em7
      Genom ett slaskigt mars mot bättre tider
                    G
Snart ska vi leva i ljus

Bm  D/C# |D   |D/C#  |G  |G  
|D   |D/C#  |Bm  |Bm  D/C#

Chorus
D              A
 Håll ut, tiden är vår vän
G
 Håll ut, kommer snart med solen
D                A                Em       G
 Håll ut, vi ska klara det här tillsammans
D               A
 Håll ut, några veckor till
G
 Håll ut, livet vänder i april
Em              A         D
 Kom och håll om mig, håll ut

D  |G/F# G  A|Bm  |Bm  x repeat 
till the end
Tap to rate this tab
# A B C D E F G H I J K L M N O P Q R S T U V W X Y Z