Song name
# A B C D E F G H I J K L M N O P Q R S T U V W X Y Z

Tomas Ledin - Om S Bara Fr Ikvll tab

Songwriter: Tomas Ledin
Tabbed by: Jeppe

Intro
Riff A
e---------------------3-3-----0-0-----------------|
B---------------------3-3-----0-0-----------------|
G--------2-2---0-2-2--0-0--2--1-1-----------------|
D--776---2-2---0-2-2--0-0--2--2-2----7-9-9--------|
A--554---0-0-----0-0--x-x--0--2-2----5-7-7--------|
E---------------------3-3-----0-0-----------------|

e---------------------3-3-------------------------|
B---------------------3-3-------------------------|
G--------2-2---0-2-2--0-0--2----------------------|
D--776---2-2---0-2-2--0-0--2----------------------|
A--554---0-0-----0-0--x-x--0----------------------|
E---------------------3-3-------------------------|

Verse 1 (not much chords, more of a riff)
Riff B
e-----------------------3--------------|
B-----------------------3--3-----------|
G--------2--------------0--2-----------|
D--776---2--------------0--0--2--------|   x 2
A--554---0--xxxxxxx-----x-----2--------|
E-----------xxxxxxx-----3-----0--------|

Nu glömmer vi chefen och en styrad fru
Drar nått gammalt över röjer ordföranden nu
Glöm slagsmål, medlem sen då, fyller ni
Glöm mörkläggningsskick och maktens cykleri

Bridge 1
DDC#  A
Ja nu glömmer vi dem
          E                 DDC#
Dem är så tråkiga ialla fall
       A
Ja låt dem hålla på
           E
Dem kommer ändå aldrig att få gå
    D           A
Som jag ner för gatan med dig

Chorus
 A                             DDC#
Oh oh, om så bara för en kväll
Em                     DDC#
Oh oh, bara du och jag
 A                             DDC#
Oh oh, om så bara för en kväll
       G  A      E
Är det dig, bara dig jag vill ha

Riff A
e---------------------3-3-----0-0-----------------|
B---------------------3-3-----0-0-----------------|
G--------2-2---0-2-2--0-0--2--1-1-----------------|
D--776---2-2---0-2-2--0-0--2--2-2----7-9-9--------|
A--554---0-0-----0-0--x-x--0--2-2----5-7-7--------|
E---------------------3-3-----0-0-----------------|

Vesre 2
    A
Nu glömmer vi skägget på fanatikernas skägg
    Em
Och sheriffen från Texas och hans engelska drägg
   A
Ja världens män, låt dem ljuga för varann
   Em
Om försvunna atombomber och krig i Guds namn

Bridge 2
DDC#  A
Ja nu glömmer vi dem
          E                 DDC#
Dem är så tråkiga ialla fall
       A
Ja låt dem hålla på
           E
Dem kommer ändå aldrig att få gå
    D           A
Som jag ner för gatan med dig

Chorus
 A                             DDC#
Oh oh, om så bara för en kväll
Em                     DDC#
Oh oh, bara du och jag
 A                             DDC#
Oh oh, om så bara för en kväll
       G  A      E
Är det dig, bara dig jag vill ha

Interlude
G  D |A
G  D |E
G  D |A
Bm   |Bm
Bm   |D/C#  D
            G
Jag glömmer rubrikerna på löpen idag
                          D/C#  D
Glöm mobbing, lakajer och kvällstidningarna
       A
För en ökad försäljning förstörs någons liv
D/C#         D      Bm
Det är allmänhetens intresse
Vilket dugligt motiv
Jao, det glömmer vi idag

Riff A
e---------------------3-3-----0-0-----------------|
B---------------------3-3-----0-0-----------------|
G--------2-2---0-2-2--0-0--2--1-1-----------------|
D--776---2-2---0-2-2--0-0--2--2-2----7-9-9--------|
A--554---0-0-----0-0--x-x--0--2-2----5-7-7--------|
E---------------------3-3-----0-0-----------------|

e---------------------3-3-----0-0-----------------|
B---------------------3-3-----0-0-----------------|
G--------2-2---0-2-2--0-0--2--1-1-----------------|
D--776---2-2---0-2-2--0-0--2--2-2----7-9-9--------|
A--554---0-0-----0-0--x-x--0--2-2----5-7-7--------|
E---------------------3-3-----0-0-----------------|

Chorus
 A                             DDC#
Oh oh, om så bara för en kväll
Em                     DDC#
Oh oh, bara du och jag
 A                             DDC#
Oh oh, om så bara för en kväll
Em                     DDC#
Oh oh, bara du och jag
 A                             DDC#
Oh oh, om så bara för en kväll
Em                     DDC#
Oh oh, bara du och jag
       G  A      E
Är det dig, bara dig jag vill ha

 Interlude
G  D |A
G  D |E
G  D |A
G  D |E
G  D |A
G  D |E
G  D |A
G  D |E
Tap to rate this tab
# A B C D E F G H I J K L M N O P Q R S T U V W X Y Z