Guitaretab - guitar tabs
Song name
# A B C D E F G H I J K L M N O P Q R S T U V W X Y Z

Tomi Swick - Still In The Light tab

Song: 	Still In The Light
Artist: Tomi Swick
Album: 	Stalled Out In The Doorway
Tabbed:	Ryan Lloyd       rdlloyd@hotmail.com	



Chords Used:

     D   Em7   G    A
e|---2----3----3----0---|
B|---3----3----3----2---|
G|---2----0----0----2---|
D|---0----2----0----2---|
A|--------2----2----0---|
E|-------------3--------|




Intro and 1st Verse

e|-------3---2-------------------3---2--------------|
B|-----3---3-----3--2--2-3-----3---3-----3--2--2-3--|
G|--------------------------------------------------|
D|--0-----------------------2-----------------------|
A|--------------------------------------------------|
E|--------------------------------------------------|

e|-------3---2-------------------3---2--------------|
B|-----3---3-----3--2--2-3-----3---3-----3--2--2-3--|
G|--------------------------------------------------|
D|--------------------------------------------------|
A|--------------------------0-----------------------|
E|--3-----------------------------------------------|

Am I mistaken 
Or maybe just high?
To miss your sad face
To see you walk by
See I'm busy but I 
I don't bat an eye
Tell you now though 
Maybe I'll try 



Chorus:

                    G 
You're still in the light
                   Em7 
You're still in my eyes
             D       A
So don't say goodbye love
             G
You see me inside
             A
Don't try to hide away 



Verse 2:
[ Tab from: http://www.guitaretab.com/t/tomi-swick/97142.html ]
D             Em7
Am I mistaken
              G             A
Or maybe just high?
D                  Em7
Kiss your sad face
                 G              A
To stop you from crying
D                 Em7
See I'm busy but I 
                G              A
I don't bat an eye
D                    Em
Tell you now though 
           G              A 
Maybe I'll try 


Chorus:

                    G 
You're still in the light
                   Em7 
You're still in my eyes
             D       A
So don't say goodbye love
             G
You see me inside
             A
Don't try to hide away 


Bridge:

G   D        A       Em
I'm sure you don't expect it
G D      A   Em
I can be unexpected oh
G   D        A           Em
I'd shut the whole world down 
Em
just to tell you
A
just to say I see you now.


D	Em7	G	A
D	Em7	G	A



Chorus:

                    G 
You're still in the light
                   Em7 
You're still in my eyes
             D       A
So don't say goodbye love
                    G 
You see me inside
                   Em7 
Dont try to hide
             D       A
Just stay a while
                    G 
You're still in the light
                   Em7 
You're still in my eyes
             D       A
So don't say goodbye love
             G
You see me inside
             A
Don't try to hide away 


D             Em7
Am I mistaken
              G             A
Or maybe just high?



questions or comments to rdlloyd@hotmail.com
Related for Still In The Light tab
Advertisement will be closed in 10 seconds