Guitaretab - guitar tabs
Song name
# A B C D E F G H I J K L M N O P Q R S T U V W X Y Z

Tommy Emmanuel - Classical Gas Live tab

Tommy Emmanuel - Classical Gas live (teaching it on youtube)

    Am               G                Em
e|--------------------------------------------------------------|
b|---------0h-1------------------------------0h1p0---------0----| x2
g|-------2------2---------0-------0----------0-0-0-2-0-2--0-----|
d|-----2----------2-----0-------0-----------2--2-2-2-2-2-2------|
a|---0-------------------------------------2--------------------|
E|-------------------3-------2----------0-----------------------|


Fast chordal run

   Am  G   C   Dm   D   G   Em7  Adim   Bdim
e|---------0---1----2---3---4----5------7---------------------|
b|-1---3---1---3----3---0---3----4------6---------------------|
g|-2---0---0---2----2---0---4----5------7---------------------|
d|-2---0-------0------------0---------------------------------|
a|-0---2---3--------------------------------------------------|
E|------------------2---3-------------------------------------|
[ Tab from: http://www.guitaretab.com/t/tommy-emmanuel/113898.html ]
e|--8-7-5-----7---5---------------8-7-5-----7---5---(12)----(7)--------|
b|--5-5-5-8---5---7---------------5-5-5-8---5---7---(12)----(7)--------|
g|--5-5-5-5---5---5---------------5-5-5-5---5---5---(12)----(7)--------|
d|---------------------------------------------------------------------|
a|--0-0-0-0-0-0-0-0-0-0-0-0-0-0-0-0-0-0-0-0-0-0-0-0-0-0-0-0-0-0-0-0-0--|
E|---------------------------------------------------------------------|

* keep playing the A in the bass with your thumb

e|--8-7-5-----7---5--5-5--5--------------0--------1-----0---0---0---0----------0---|
b|--5-5-5-8---5---7--7-7--7--------------1--------3--3---3---3---3---3-------------|
g|--5-5-5-5---5---5--5-5--5-----0--------0--------2--2----2---2---2---2------------|
d|------------------------------0-----------0-2-3-3--3-----------------------------|
a|--0-0-0-0-0-0-0-0--0-0--0--------0-2-3-------------2-----------------------------|
E|--------------------------0-2-3----------------------------------------3-1-0-----|

---0----0-----0-------0--x----|
0-----0----0-----0-----0--x---|
-1-----1----1-----1---1--x----|
----------------------2--x----|
----------------------2--x----|
----------------------0--x----|


x = percussion thing he does, after the percussion sound, back to intro.

I know this isn't the whole song, but i just wanted to tab the lesson he did on it.

link: http://www.youtube.com/watch?v=hgR3DMWLzsA
Related for Classical Gas Live tab
Advertisement will be closed in 10 seconds