Song name
# A B C D E F G H I J K L M N O P Q R S T U V W X Y Z

Tommy Emmanuel - Jingle Bells tab

Capo Second

Play part one twice and change endings each time, then part two twice and change 
endings. Then play part one again with 'ending a', then play part three before playing the real 
ending. http://www.youtube.com/watch?v=M6H8urtrG8E use this video as a guide.

Part One

-0-0--0--0----0-----0--0---0--3--------0-----------0--|
-0----1-----1-----1------1----1--1--3----1------1-----|
-0-5-----4------2------0---0-----2--1--0-----3--------|
-0-----------------------------------------2----------|
-0----------------------------------------------------|
-0----------------------------------------------------|
                                Ending B (play second time)
-0--1-----1-----1--1--0--0----|----------------------0-|
-0--1-----1-----1--1--1--1----|-8--8--6--3---------1---|
-0-----2-----1----------------|-5--5--4--4-------0-----|
-0--3-----0-----------2-----2-|----7-----3-----2-------|
-0-----------------3-----3----|-5------------3---------|
-0----------------------------|-------3----------------|

Ending A (play first time)
-0--------0-------0------------3--|
-0----------3--3-----3--------4---|
-0----------5--5-----0-------4----|
-0----------4-----4-----2---------|
-0--3--4--5-----------------------|
-0-------------4-----3-----3------|

Part two
                                                  Ending A
-0-------------0-----------------------0--------|---------------1--0------|
-0----------------3--1------------0-------3--1--|---------------------3---|
-0----------0-----------0-----------------------|-2---------2-------------|
-0-------------2-----2-----2----2------2-----2--|----3----3-----3-----3---|
-0----0--2--3-----------3-----------3-----------|-------------------------|
-0--3-------------3-----------3-----------3-----|-1-----1-----1----1------|

-0-----------3---3---1------0--------------|
-0--0------------------3-------------------|
-0-----------------------------------------|
-0-----3---3-------3-----3--------2-----2--|
-0-----------------------------3-----------|
-0--3----3-----3-----3---------------3-----|

Ending B
-0----------1--1----0-1----3--3--3--4--5-----------------------|
-0----------3--3-----------5--5--5--------8--6--3---------1----|
-0--2----------------------------------------4--4-------0------|
-0----3---3------3-----3------5-----------7-----3-----2--------|
-0----------------------------------4--5------------3----------|
-0--1---1-----1-----1------3-----3-----------3-----------------|


Part Three
-0--0-0-0---0-0-0---0-3--------0------------1-1---1-1-0-0------------------|
-0--1-1-1---1-1-1---1-1--1--3---------------1-1---1-1-1-1----8--8--6--3--1-|
-0-----------------------------------------------------------5--5--4--4--0-|
-0----2---2---2---2---2---------------------2---2-----2---2-----7-----3--2-|
-0--3---2---0-----------------------3--1--0------------------5-----------3-|
-0--------------4---3----2--1--0--3-----------4-----3---3----------3-------|


Ending
-0-----1-----1---1---1--0--0------------------------------------------------|
-0----1-----1--------1--1--1----8--8--6--3--1-------1-------1-------1-----2-|
-0---2-----1--------------------5--5--4--4--------2-------1-------0------4--|
-0--3-----0-------------2----2-----7-----3------2-------1-------0-------2---|
-0-------------------3-----3----5--------------------------------------0----|
-0------------------------------------3-------2--------1------0-------------|
Tap to rate this tab
# A B C D E F G H I J K L M N O P Q R S T U V W X Y Z