Guitaretab - guitar tabs
Song name
# A B C D E F G H I J K L M N O P Q R S T U V W X Y Z

Tommy Emmanuel - To B Or Not To B tab

To 'B' or not to 'B' - Chet Atkins
Performed by Tommy Emmanuel

Artist: Tommy Emmanuel
Tab submitted by: Harold Schaefer
Email: schaefeh_19440@yahoo.com

I tabbed this by watching Tommy Emmanuel's youtube lesson. 
See link: http://www.youtube.com/watch?v=vlaNXg5ZH-s

Chord notations are not exact. They should be used for basic reference only.

Tab Notes:      
Tuning: Standard   
h = hammer on      
P = pull off     
/ = slide 
< > = harmonic

Intro:

   B                     G7                 
|----------------0----|-----------------0----|
|------0---0---0---0--|-------0---0---0---0--|
|---------------------|----------------------|
|----4---4---4--------|-----3---3---3--------|
|--2----2---2---------|----2---2---2---------|
|---------------------|--3-------------------|

  F#sus4   F#           F#sus4   F#
|----------------0---|----------------0---|
|-----0--0--------0--|-----0---0----------|
|----------3---------|-----------3--------|
|----4--4-----4------|----4--4------4-----|
|---4--------4-------|---4---------4------|
|--2-----------------|--2-----------------|

Verse 1:

  B      BM7      B7               EM7/6      A7
|------------0-----------0-------|--------0---------0-------|
|------4----4--4-------4---4--0--|------4---4------4--4--0--|
|------4---3---------6------6----|------6---------6----6----|
|----4----4--------7-------------|----6----------5----------|
|--2-----2-----------------------|-------------0------------|
|-----------------7--------------|--0-----------------------|

  B      BM7      B7               B?      F#sus4  F#7
|------------0-----------0-------|-------2-------------2---|
|------4----4--4-------4---4--0--|------2-------2--------2-|
|------4---3---------6------6----|-----4------4---4--3---3-|
|----4----4--------7-------------|----5--------------------|
|--2-----2-----------------------|--2---------2------2-----|
|-----------------7--------------|-------------------------|


  B      BM7      B7               EM7/6      A7
|------------0-----------0-------|--------0--------0-------|
|------4----4--4-------4---4--0--|------4---7-----4--4--0--|
|------4---3---------6------6----|------6--------6----6----|
|----4----4--------7-------------|----6---------5----------|
|--2-----2-----------------------|------------0------------|
|-----------------7--------------|--0----------------------|

  C#9        F#7             B          G7   F#7
|-------0-----2-----------|------------------------|
|-----4---4-----2h4-p2----|------0-0-0--0-0--------|
|-----4-------3--------4--|-----4-------4-------3--|
|---3--------2--2---------|----4--------3------2---|
|--4----------------------|--2----------2-----1----|
|-------------------------|------------3-----2-----|

Verse 2:

  B      BM7      B7               EM7/6      A7
|------------0-----------0-------|--------0---------0-------|
|------4----4--4-------4---4--0--|------4---4------4--4--0--|
|------4---3---------6------6----|------6---------6----6----|
|----4----4--------7-------------|----6----------5----------|
|--2-----2-----------------------|-------------0------------|
|-----------------7--------------|--0-----------------------|


  B      BM7      B7               B?      F#sus4  F#7
|------------0-----------0-------|-------2-------------2---|
|------4----4--4-------4---4--0--|------2-------2--------2-|
|------4---3---------6------6----|-----4------4---4--3---3-|
|----4----4--------7-------------|----5--------------------|
|--2-----2-----------------------|--2---------2------2-----|
|-----------------7--------------|-------------------------|


  B      BM7      B7               E              A6 
|------------0-----------0-------|-----4-6-7-6-4-------0--|
|------4----4--4-------4---4--0--|-----5------------7-----|
|------4---3---------6------6----|-----4-----------6------|
|----4----4--------7-------------|---6------------5-------|
|--2-----2-----------------------|---------------0--------|
|-----------------7--------------|--0---------------------|


  C#9        F#7             B          
|-------0-----2-----------|---------------------|
|-----4---4-----2h4-p2----|------0-0-0----------|
|-----4-------3--------4--|-----4---------------|
|---3--------2--2---------|----4----------------|
|--4----------------------|--2------------------|
|-------------------------|---------------------|

Bridge:
              E      F#     EM7     F#    E           F#7         
|-----------|----4---6------7-------6--|--------7p4-------|
|-----------|----5---7------9-------7--|--5p4h5----5---2--|
|-----------|----4---6------8-------6--|--4------------3--|
|-----------|--6-----8------9-------8--|--6------------2--|
|--2-1-2----|--------------------------|---------------4--|
|--------0--|--------------------------|---------------2--|


   F#m7  Gm7  G#m7                B/A   A    F#sus/G#  F#7
|--------------------4---------|-----------------2---------|
|---2----/3---/4---4--------0--|--7-----5----2h4--------2--|
|---2----/3------6-----7/6--4--|--8-----6----4----------3--|
|---2----/3---/4------------3--|--9-----7------------------|
|---4----/5---/6------------4--|--0-----0------------------|
|---2----/3---/4---------------|-------------4----------2--|


  B      BM7      B7               E              A6 
|------------0-----------0-------|-----4-6-4-6-4-------0--|
|------4----4--4-------4---4--0--|---5---------------7----|
|------4---3---------6------6----|-----4-4-----4----6-----|
|----4----4--------7-------------|---6-------------5------|
|--2-----2-----------------------|----------------0-------|
|-----------------7--------------|-0----------------------|

[ Tab from: http://www.guitaretab.com/t/tommy-emmanuel/374999.html ]
  C#9        F#7             B       
|-------0-----2-----------|---------------------|
|-----4---4-----2h4-p2----|--0---0---0---0------|
|-----4-------3--------4--|---------------------|
|---3--------2--2---------|-----4---4---4----4--|
|--4----------------------|--2-2---2---2----2---|
|-------------------------|---------------------|


   G7               G   
|---------------------0-----0--|
|------0---0---0-----0-----0---|
|------4---4---4----2-----1----|
|-----3---3---3----3-----3-----|
|----2---2---2-----------------|
|-2-3-------------3-----3------|


Key Change/Solo:
   C                          F                 Fm
|-----0----1-0----1-0------|---------0h3p0-------0h3p0----------|
|-----1----0------3---3-1--|-----1h3------3p1---3-----3p1-------|
|-----0----0------3--------|---2---------------1-----------1p0--|
|---2-----2----------------|---3---------------3----------------|
|--3------------3----------|------------------------------------|
|--------3-----------------|--1---------------------------------|

(alternate for section above..see change in Fm)
   C                          F                 Fm
|-----0----1-0----1-0------|---------0h3p0------3p0-3p0---------|
|-----1----0------3---3-1--|-----1h3------3p1------3---3p1------|
|-----0----0------3--------|---2---------------1-----------1p0--|
|---2-----2----------------|---3---------------3----------------|
|--3------------3----------|------------------------------------|
|--------3-----------------|--1---------------------------------|

 
  C                          Bb13    A13    Ab13    G13 
|-----0----1-0---1-0------|-----3-------2------1------0--|
|-----1----0-----3---3-1--|----3-------2------1------0---|
|-----0----0-----3--------|---5-------4------3------2----|
|---2-----2---------------|--6-------5------4------3-----|
|--3------------3---------|------------------------------|
|--------3----------------|-6-------5------4------3------|

  C        C   B   Bb                 Fmaj9 F6    Bb13
|-------8--12--11--10---------------|---------0---0------|
|------8---13--12--11--13p11-10--9--|--8----6--6------3--|
|--9h10----12--11--10---------9--9--|--9----7--------5---|
|-a---------------------------8--8--|--7----7-------6----|
|-----------------------------------|--8----8------------|
|-----------------------------------|-------------6------|
 
   Dm7       G9              Am/F#  F#7    B7  G#m7/Eb
|-----0--------3-0--------|--------------------------|
|---6---6-----0----4/3-1--|--1---------5---4------7--|
|---5--------2------------|--2--------2----2-----4---|
|-----------3-------------|--2-------4-----4----4----|
|--5----------------------|---------3------2---6-----|
|-----------3-------------|--2-----2-----------------|


Bridge 2:
          E   F#  EM7    F#    E           F#7
|------|--4---6----7-----6--|--------7p4-------|
|------|--5---7----9-----7--|--5p4h5----5---2--|
|------|--4---6----8-----6--|--4------------3--|
|------|--6---8----9-----8--|--6------------2--|
|------|--------------------|--4------------4--|
|-<12>-|--------------------|---------------2--|


   F#m7  Gm7  G#m7                B/A   A    F#sus/G#  F#7
|--------------------4---------|-----------------2---------|
|---2----/3---/4---4--------0--|--7-----5----2h4--------2--|
|---2----/3------6-----7/6--4--|--8-----6----4----------3--|
|---2----/3---/4------------3--|--9-----7------------------|
|---4----/5---/6------------4--|--0-----0------------------|
|---2----/3---/4---------------|-------------4----------2--|


  B      BM7      B7               E              A6 
|------------0-----------0-------|----7p4-7-4-7-4-------0--|
|------4----4--4-------4---4--0--|--------------------7----|
|------4---3---------6------6----|------4-4-----4----6-----|
|----4----4--------7-------------|---6--------------5------|
|--2-----2-----------------------|-----------------0-------|
|-----------------7--------------|--0----------------------|


  C#9        F#7             B       B/G#
|--------0-----2------------|---------------------|
|------4---4-----2h4-4p2----|--0----0--0---0--0---|
|o-----4-------3---------4--|------4------4------o|  repeat 3x
|o---3--------2--2----------|-----4---4--4---4---o|
|---4-----------------------|--2-2----------------|
|---------------------------|-----------4---------|


  C#9        F#7  
|-------0-----2----------------------|-------|
|-----4---4-----2h4-4p2--------------|-------|
|-----4-------3---------4(ring out)--|-------|
|---3--------2--2--------------------|--4/9--|
|--4---------------------------------|-------|
|------------------------------------|-------|


Outro:
                                        (slower)  B (up strum)
|------0---0----0---0----0----0----0---0----0---0---0-------|
|-----0--------0--------0---------0--------0---------0------|
|----8---8----8---8----8---8-----8---8----8----8------8-----|
|--9----9----8---8----7---7-----6---6----5----5--------9----|
|-------------------------------------------------------9---|
|-------------------------------------------------7------7--|


  Harmonics over B chord with open B and E

  Chord shape is 799800

  To get harmonic, you need to follow the shape of the chord
  and pluck the harmonic way up by the sound hole. 

  This is easier with a thumb pick, but doable with your thumb 
  and index finger. These notes are in triplets  <-3->

   <-3->    <-3->     <-3->   <-3-> 
|---------------------------------19--|
|------------------------19-----19----|
|---------------20-----20-----20------| - repeat a few times
|------21-----21-----21---------------|
|----21-----21------------------------|
|--19---------------------------------|
Related for To B Or Not To B tab
To B Or Not To B chords by Tommy Emmanuel