Song name
# A B C D E F G H I J K L M N O P Q R S T U V W X Y Z

Tommy Emmanuel - Guitar Boogie tab

This is quite a hard solo to learn but it is excellent. By the way this is the
acoustic version that i found on youtube. Please rate it!

-------12-12-12----------------------------------------12-15b161616b15--|
9-10-12-------------12----------------------12-14-13-12-----------------|
---------------12-13--15-14-12-13-9--9-12h13----------------------------|
-----------------------------------11-----------------------------------|
------------------------------------------------------------------------|
------------------------------------------------------------------------|

12-----12-----12-----12-----12-----12-----12-----12-----12--12----------|
--13h14--13h14--13h14--13h14--13h14--13h14--13h14--13h14--14--14--------|
------------------------------------------------------------------------|
------------------------------------------------------------------------|
------------------------------------------------------------------------|
------------------------------------------------------------------------|

------------------------------------|
-----12-----------14-12-11-12-12-12-|
12-13--15-14-12-13------------------|
------------------------------------|
------------------------------------|
------------------------------------|

-------10-------------------------------------------------------------------|
9-10-12--12-11-10-9--9------------------------------------------------------|
-------------------12-12-11-10-9--9-----------------------------------------|
--------------------------------12-12-11-10-9--9----------------------------|
---------------------------------------------12-12-11-10-9--9---------------|
----------------------------------------------------------12-12-11-10-9/2-0-|
Tap to rate this tab
# A B C D E F G H I J K L M N O P Q R S T U V W X Y Z