Song name
# A B C D E F G H I J K L M N O P Q R S T U V W X Y Z

Tommy Emmanuel - Field Of Gold tab

Help us improve GuitareTab! Take a short survey!
Tuning:standard
This is kinda of the short intro bit with the music in the background
e|---7+---9h10p9----7-----7+--|
B|---7+-----------------------|
G|---7+-----------------------|
D|---7+-----------------------|
A|---7+-----------------------|
E|---7+-----------------------|

e|----------------------------------------------------|
B|----3-2-0--------3-2-0------------------------------|
G|----------2-2----------2-2/4-----2/4-2-2---------2--|
D|------------------------------0----------0--2/4-----|
A|----------------------------------------------------|
E|----------------------------------------------------|

e|-----------------------------------------------------------------------------------|
B|----3-2-0-------3-2-0--------------------------------------------------------------|
G|----------2-2----------2h4-----------2---------------------------------------------|
D|-----------------------------0h2h4------2/4---2p0----------------------------------|
A|-----------------------------------------------------------------------------------|
E|-----------------------------------------------------------------------------------|

thats all i got so far but atleast its a start
by benwah james

| /  slide up
| \  slide down
| h  hammer-on
| p  pull-off
| ~  vibrato
| +  harmonic
Related for Field Of Gold tab