Song name
# A B C D E F G H I J K L M N O P Q R S T U V W X Y Z

Tommy Guerrero - War No More tab

Standard tuning

h= hammer on
p= pulloff
x= dead note
/= slide to

(Song starts with bass lines with the guitar accenting the bass)

 {played in various sequence at the beginning of the song}
[-7---7---7---7---7---7---7---7---7-10-10-7-5-7--------------------|
[-7-x-7---7-x-7---7-x-7---7-x-7---7-7--7--7-7-7--------------------|
[------------------------------------------------------------------|
[------------------------------------------------------------------| X[varied]
[------------------------------------------------------------------|
[------------------------------------------------------------------|

{played after the opening sequence, placed by ear according to the musician,
then lead to the bridge}
[-7-10-10-7-5-7---7--10--14-14-------------------------------------|
[-7-7--7--7-7-7---7--7---12-12-------------------------------------|
[------------------------------------------------------------------|
[------------------------------------------------------------------|
[------------------------------------------------------------------|
[------------------------------------------------------------------|

{Played by bass and guitar in sync}
[------------------------------------------------------------------|
[------------------------------------------------------------------|
[------------------------------------------------------------------|
[-------------------2-0-2-4-2-0-2--0-------------------------------| X2
[-2-0-2-4-2-4-5-4-5--------------4---0-----------------------------|
[------------------------------------------------------------------|

There are other parts such as the harmonics after the part above (bridge).
I didn't have time to work them out right now but this is
the jist of the song and should help a lot in figuring out the whole thing.
Another great song by Tommy G. Enjoy.

My contact for questions is: Richardnixon24@gmail.com
Tap to rate this tab
 
# A B C D E F G H I J K L M N O P Q R S T U V W X Y Z