Song name
# A B C D E F G H I J K L M N O P Q R S T U V W X Y Z

Tommy Guerrero - Soul Miner tab

||-7/9-7/9-7/9------7/9-7/9------------------|
||-------------10-7---------10-7---7---------|
||-------------------------------9-----------|
||-------------------------------------------|
||-------------------------------------------|
||-------------------------------------------|


  -7/9-7/9-7/9-------------------------------||
  -------------10-7---7-10-10-10/12-7--------||
  ------------------9------------------------||
  -------------------------------------------||
  -------------------------------------------||
  -------------------------------------------||

This is just the main tune through the whole song with slight variation.
If you have any comments, suggestions, corrections or other rare good
tabs just let me know jthorpe1@bigpond.net.au thanks to jesse for this one.
Tap to rate this tab
# A B C D E F G H I J K L M N O P Q R S T U V W X Y Z