Song name
# A B C D E F G H I J K L M N O P Q R S T U V W X Y Z

Tommy James And Shondells - Crimson And Clover tab

<<<<< This is just part of the solo with the wah wah pedal>>>>>>>
...Any add-ons email xdannox I will make sure you get recognized...

Tommy James and the Shondells
Crimson and Clover

      w        w         w         w
|---------------------------------------------------------------------|
|-----12-------15-----------------------------------------------------|
|------------------------16--------14---------------------------------|
|---------------------------------------------16----12----14----15(16-|
|---------------------------------------------------------------------|
|---------------------------------------------------------------------|


|--------------------------------------------------------------------|
|--------------------------------------------------------------------|
|--------------------------------------------------------------------|
|--15(16)----15(16)-----15(16)---------------------------------------|
|--------------------------------------------------------------------|
|--------------------------------------------------------------------|
Tap to rate this tab
 
# A B C D E F G H I J K L M N O P Q R S T U V W X Y Z