Song name
# A B C D E F G H I J K L M N O P Q R S T U V W X Y Z

Tommy James And Shondells - Crimson And Clover tab

                   TABBED BY JOSH KATSIKIS
(hit me up on facebook if you have questions)
 crimson and clover by tommy james and the shondells


|-----2--2---------------|
|-----3--3--2--2--0--0---|
|-----2--2--2--2--0--0---| repeat 3 times
|-----0--0--2--2--0--0---|
|------------------------|
|------------------------|

|-----2--2----------------------------------------------------|
|-----3--3--2--2--0-------------------------------------------|
|-----2--2--2--2--0--1-1--1-1--1-1--1-1--1-1-1-1/3-3--3-3--3--|
|-----0--0--2--2--0--2-2--2-2--2-2--2-2--2-2-2-2/4-4--4-4--4--|
|--------------------2-2--2-2--2-2--2-2--2-2-2-2/4-4--4-4--4--|
|-------------------------------------------------------------|

|-----2--2---------------|
|-----3--3--2--2--0--0---|
|-----2--2--2--2--0--0---| repeat 4 times
|-----0--0--2--2--0--0---|
|------------------------|
|------------------------|

|-----2--2-----------------------------------------------------------|
|-----3--3--2--2--0--------------------------------------------------|
|-----2--2--2--2--0--1-1--1-1--1-1--1-1--1-1-1-1/3-3--3-3--3--3-3-3-3|
|-----0--0--2--2--0--2-2--2-2--2-2--2-2--2-2-2-2/4-4--4-4--4--4-4-4-4|
|--------------------2-2--2-2--2-2--2-2--2-2-2-2/4-4--4-4--4--4-4-4-4|
|--------------------------------------------------------------------|
bass break

|-------------------------------------|
|-------------------------------------|  2 times
|-------------------------------------|
|-------9-9-9-9-9-9-9-9-7--7--2--2-2--|

|------------------5--3--0--|
|-1h3--2--0--1-x-0----------|
|-1h3--2--0--2-x-0----------| 4 times
|-1h3--2--0--2-x-0----------|
|---------------------------|
|---------------------------|

|---------------------|
|---------------------|
|1-1-1-1-1-1-1-1-1----|
|2-2-2-2-2-2-2-2-2----|
|2-2-2-2-2-2-2-2-2----|
|---------------------|

|-----2--2---------------|
|-----3--3--2--2--0--0---|
|-----2--2--2--2--0--0---| repeat 4 times
|-----0--0--2--2--0--0---|
|------------------------|
|------------------------|


|-----2--2-----------------------------------------------------------|
|-----3--3--2--2--0--------------------------------------------------|
|-----2--2--2--2--0--1-1--1-1--1-1--1-1--1-1-1-1/3-3--3-3--3--3-3-3-3|
|-----0--0--2--2--0--2-2--2-2--2-2--2-2--2-2-2-2/4-4--4-4--4--4-4-4-4|
|--------------------2-2--2-2--2-2--2-2--2-2-2-2/4-4--4-4--4--4-4-4-4|
|--------------------------------------------------------------------|
bass break

|-------------------------------------|
|-------------------------------------|  2 times
|-------------------------------------|
|-------9-9-9-9-9-9-9-9-7--7--2--2-2--|

|-----------------2-2-------------------------------------2-2------------|
|----15-h-17b-----3-3--2-2--0-0--17--17p15--12--15-h-17b--3-3--2-2--0-0--|
|-----------------2-2--2-2--0-0---------------------------2-2--2-2--0-0--|
|-----------------0-0--2-2--0-0--------------------------------2-2--0-0--|
|------------------------------------------------------------------------|
|------------------------------------------------------------------------|

|----------------------------------2-2------------|
|--15--15h17p15--12--15--15-h-17b--3-3--2-2--0-0--|
|----------------------------------2-2--2-2--0-0--| play this 3 times
|---------------------------------------2-2--0-0--|
|-------------------------------------------------|
|-------------------------------------------------|

|-----2--2--------------------------------------2~------------|
|-----3--3--2--2--0-----------------------------3~------------|
|-----2--2--2--2--0--1-1--1-1--1-1--1-1--1-1-1-12~------------|
|-----0--0--2--2--0--2-2--2-2--2-2--2-2--2-2-2-2--------------|
|--------------------2-2--2-2--2-2--2-2--2-2-2-2--------------|
|-------------------------------------------------------------|

this is where the whah solo goes but i have no idea how to decipher it. im only 14 and i 
my guitar about nine months ago so im not to keen on listening to whah solos and 
them out but this sounds pretty good

|-5-9--5--------------3----3----3----3--------------------------------------|
|-------6-5-4-4-5--4h5--4h5--4h5--4h5--5-4-5--------------------------------|
|------------5-------------------------------6-5-3-0-2h1h3h0-2h1h3h0-2h1h3h0|
|---------------------------------------------------------------------------|
|---------------------------------------------------------------------------|
|---------------------------------------------------------------------------|

|---------------------------------------------------1-1-1-------------------|
|---------------------------------------------------------------------------|
|-2h1h3h0--2-1--3--5--7-7-7-7-7-7-7-7-7-7-7-7-5/3-0------7-7-7-7-7-7-7-7-7-7|
|---------------------------------------------------------------------------|
|---------------------------------------------------------------------------|
|---------------------------------------------------------------------------|

|---------------------2~-----------2-2---------------------------------|
|---------------------3~-----------3-3--2-2--0-0-----------------------|
|1-1--1-1--1-1--1-1--12~-----------2-2--2-2--0-0--3h5--3-2-1b----------|
|2-2--2-2--2-2--2-2--2----3~~~~~~~------2-2--0-0--------------3~~~~~~--|
|2-2--2-2--2-2--2-2--2-------------------------------------------------|
|----------------------------------------------------------------------|

|-2-2--------------------------2-2----------------------------2-2-----------|
|-3-3--2-2--0-0----------------3-3--2-2--0-0------------------3-3--2-2--0-0-|
|-2-2--2-2--0-0----------------2-2--2-2--0-0------------------2-2--2-2--0-0-|
|------2-2--0-0--3-2-1--5-3--0------2-2--0-0--3--3-2-0--0h2--------2-2--0-0-|
|-----------------------------------------------------------3---------------|
|---------------------------------------------------------------------------|

|-----------------2-2-------------------------------------------------------|
|-----------------3-3--2-2--0-0---------------------------------------------|
|-----------------2-2--2-2--0-0--1-1--1-1--1-1--1-1--1-1-1-1----------------|
|-0-1-2-3-2-0-2--------2-2--0-0--2-2--2-2--2-2--2-2--2-2-2-2--3~~~~~~~~~~~--|
|---------------3----------------2-2--2-2--2-2--2-2--2-2-2-2----------------|
|---------------------------------------------------------------------------|

|-2-2------------------------------2-2------------------------------|
|-3-3--2-2--0-0--------------------3-3--2-2--0-0--------------------|
|-2-2--2-2--0-0--------------------2-2--2-2--0-0--------------------|
|------2-2--0-0-3//////19\\\\\\3--------2-2--0-0---3--3-2-0--0h2----|
|----------------------------------------------------------------3--|
|-------------------------------------------------------------------|

|-2-2-----------------------2-2---------------------------------|
|-3-3--2-2--0-0-------------3-3--2-2--0-0-----------------------|
|-2-2--2-2--0-0-------------2-2--2-2--0-0-----------------------|
|------2-2--0-0--3-2-1--5-3------2-2--0-0---3--3-2-0--0h2-------|
|---------------------------------------------------------3-----|
|---------------------------------------------------------------|

|-----2--2-----------------------------------------------------------|
|-----3--3--2--2--0--------------------------------------------------|
|-----2--2--2--2--0--1-1--1-1--1-1--1-1--1-1-1-1/3-3--3-3--3--3-3-3-3|
|-----0--0--2--2--0--2-2--2-2--2-2--2-2--2-2-2-2/4-4--4-4--4--4-4-4-4|
|--------------------2-2--2-2--2-2--2-2--2-2-2-2/4-4--4-4--4--4-4-4-4|
|--------------------------------------------------------------------|

|------------------------------------------------|
|------------------------------------------------|
|3-3--3-3--3--3-3-3-3--3-3--3-3--3-3--3-3-3-3----| do this two or three times
|4-4--4-4--4--4-4-4-4--4-4--4-4--4-4--4-4-4-4----|
|4-4--4-4--4--4-4-4-4--4-4--4-4--4-4--4-4-4-4----|
|------------------------------------------------|


|-------9-------------8---------6-----8--------|
|-----9------------9----------7-----9----------|
|--10-----10---8--------8---6-----8-----8------| one guitar does this until
|----------------------------------------------| the end of the song
|----------------------------------------------|
|----------------------------------------------|

while that is playing another guitar will play this  and it will keep getting louder as 
song goes.(this first bar play after each time they say "crimson and clover overrr and overr)

|-----------------------------------------------------|
|--5-h-7-..crimson and clover over and over..--5-h-7--|
|-----------------------------------------------------|
|-----------------------------------------------------|
|-----------------------------------------------------|
|-----------------------------------------------------|

|----------------------------|
|--5--5-5-7--5-5--5-5-5-7-5--| do this until the song is over
|----------------------------|
|----------------------------|
|----------------------------|
|----------------------------|
Tap to rate this tab
# A B C D E F G H I J K L M N O P Q R S T U V W X Y Z