Guitaretab - guitar tabs
Song name
# A B C D E F G H I J K L M N O P Q R S T U V W X Y Z

Tommy Lee - Why Is It tab

im not sure if its write or wrong so uhh...go easy eh..
i think that the chorus is wrong too..

TOMMY LEE
WHY IS IT

Intro/Verse: (lots of reverb)

e ||--------------------|------------------------||
b ||o-------0--------0--|--------0----------0---o||
G ||--2---2--------2----|--2---2---2-------2--2--||
D ||----2--------2------|----2-----------2-------||
A ||o-0-----------------|--0--------------------o||
E ||--------------------|------------------------||
        Why do we always feel so bad....

Bridge:

|--0--0-0-0/0-0--0-0-0-0--0-0-0/0-0--0-0-0-0--0-0-0/0-0--0-0-0-0--0-0-0--------|
|--1--1-1-1/3-3--3-3-3/1-1--1-1-1/3-3--3-3-31-1--1-1-1/3-3--3-3-31-1--1-1-1----|
|--0--0-0-0/0-0--0-0-0-0--0-0-0/0-0--0-0-0-0--0-0-0/0-0--0-0-0-0--0-0-0--------|
|--2--2-2-2/4-4--4-4-42-2--2-2-2/4-4--4-4-42-2--2-2-2/4-4--4-4-42-2--2-2-2-----|
|--3--3-3-3/5-5--5-5-53-3--3-3-3/5-5--5-5-53-3--3-3-3/5-5--5-5-53-3--3-3-3-----|
|--0--0-0-0-0-0--0-0-0-0-0--0-0-0-0-0--0-0-0-0-0--0-0-0-0-0--0-0-0-0-0--0-0-0--|

   No more___time to waste....

--0-0-0--|
--0-0-0--|
--1-1-1--|
--2-2-2--|
--3-3-3--|
--0-0-0--|

Chorus:
[ Tab from: http://www.guitaretab.com/t/tommy-lee/71082.html ]
          |-----------------4-4--4-3--3-3-3--3-2-2--2-2--0---|
          |---2--2-2--0-2-0-5-5--5-3--3-3-3--3-3-3--3-3--2---|
          |---2--2-2--2-2-2-4-4--4-4--4-4-4--4-2-2--2-2--2---|
          |---2--2-2--2-2-2--------5--5-5-5--5---------------|
          |--------------------------------------------------|
          |--------------------------------------------------|
Tell me,     Why is it that we just ain't satisfied....


Chorus End 1:

|----------------4-4--4-3--3-3-3--3----0--|
|--2--2-2--0-2-0-5-5--5-3--3-3-3--3---2---|  <--This is a slow chord,
|--2--2-2--2-2-2-4-4--4-4--4-4-4--4--2----|         Not individual notes
|--2--2-2--2-2-2--------5--5-5-5--5-------|
|-----------------------------------------|
|-----------------------------------------|
 Why is it that we just ain't satisfied__

Intro/Verse
Bridge
Chorus

Chorus End 2:

|----------------4-4--4-3--3-3-3--3-2-2--2-2--0---|
|--2--2-2--0-2-0-5-5--5-3--3-3-3--3-3-3--3-3--2---|
|--2--2-2--2-2-2-4-4--4-4--4-4-4--4-2-2--2-2--2---|
|--2--2-2--2-2-2--------5--5-5-5--5---------------|
|-------------------------------------------------|
|-------------------------------------------------|
    Why is it that we just ain't satisfied_______

Fill:

|-------|------|------|------2--|
|---0---|--3---|--0---|--3---3--| <--strum last chord slowly
|---2---|--2---|--2---|--2---2--|
|---2---|--2---|--2---|--2---0--|
|-------|------|------|---------|
|-------|------|------|---------|

Bridge
Chorus
Chorus End 1
Related for Why Is It tab
×
Why Is It