Song name
# A B C D E F G H I J K L M N O P Q R S T U V W X Y Z

Tommy Lee - Lieing Cats tab

Help us improve GuitareTab! Take a short survey!
-------------------------------------------------------------------------------
			     Lieing Cats - Tomas
-------------------------------------------------------------------------------
Tabbed by: Tomas
Email:

Tuning: standard

intro/verse
e|-----------------------------------------------------------------------------|
B|-----------------------------------------------------------------------------|
G|--x-x-x-xxx------------------------------------------------------------------|
D|--x-x-x-xxx--------------repeat-8X-------------------------------------------|
A|--5-5-5-xxx3333--------------------------------------------------------------|
E|--3-3-3-xxx5555--------------------------------------------------------------|

pre-chorus
e|---------------------------------------------------------------------------------------|
B|---------------------------------------------------------------------------------------|
G|------xxx------xxxx----------------xxx------xxxx---------------------------------------|
D|------xxx------xxxx----------------xxx------xxxx---------------------------------------|
A|--5-5-xxx3333--xxxx-5-55555----5-5-xxx3333--xxxx-5-x-6---fade out----------------------|
E|--3-3-xxx5555--xxxx-7-777/6----3-3-xxx5555--xxxx-7-x-7---------------------------------|

Chorus
e|------------x-1-x-2-3-33xxx-------------3-3xxx----------6----------------------------|
B|------------x-1-x-2-3-33xxx----------3--3-3xxx----------6----------------------------|
G|------------x-1-x-2-3-33xxx----------3--3-3xxx----------6----------------------------|
D|--upstroke--x-1-x-2-3-33xxx-upstroke-2--3-3xxx-upstroke-6--repeat-2x-----------------|
A|------------x-3-x-4-5-55xxx----------3--5-5xxx----------8----------------------------|
E|------------x-1-x-2-3-33xxx-------------3-3xxx----------6----------------------------|
Related for Lieing Cats tab