Song name
# A B C D E F G H I J K L M N O P Q R S T U V W X Y Z

Tommy Reeve - Im Sorry tab

-------------------------------------------------------------------------------
			     I'M SORRY - Tommy Reeves
-------------------------------------------------------------------------------
Tabbed by:  norm95
Email:  normanhansae@googlemail.com

Tuning:  Standard with Capo 3


Intro: (normally played with piano)

  Am      G        F                Am      G        F
e|0-------3-------|1---------------|0-------3-------|1---------------|
B|1-------0-------|1---------------|1-------0-------|1---------------|
G|2-------0-------|2---------------|2-------0-------|2---------------|
D|2-------0-------|3---------------|2-------0-------|3---------------|
A|0-------2-------|3---------------|0-------2-------|3---------------|
E|0-------3-------|1---------------|0-------3-------|1---------------|

Verse 1: Repeat Intro twice, then play this:

  D                F                D                F
e|2---------------|1---------------|2---------------|1---------------|
B|3---------------|1---------------|3---------------|1---------------|
G|2---------------|2---------------|2---------------|2---------------|
D|0---------------|3---------------|0---------------|3---------------|
E|x---------------|1---------------|x---------------|1---------------|

  C                Am               F
e|----------------|----------------|1---------------|----------------|
B|1---1---2---1---|1---1---2---1---|1---------------|----------------|
G|0-0---0---0---0-|2-0---0---0---0-|2---------------|----------------|
D|----------------|----------------|3---------------|----------------|
A|2---------------|0---------------|3---------------|----------------|
E|----------------|----------------|1---------------|----------------|


Refrain:

  C                G                Am               F
e|0---------------|3---------------|0---------------|1---------------|
B|1---------------|0---------------|1---------------|1---------------|
G|0---------------|0---------------|2---------------|2---------------|
D|2---------------|0---------------|2---------------|3---------------|
A|3---------------|2---------------|0---------------|3---------------|
E|0---------------|3---------------|0---------------|1---------------|


  C                G                Am               F
e|0---------------|3---------------|0---------------|1---------------|
B|1---------------|0---------------|1---------------|1---------------|
G|0---------------|0---------------|2---------------|2---------------|
D|2---------------|0---------------|2---------------|3---------------|
A|3---------------|2---------------|0---------------|3---------------|
E|0---------------|3---------------|0---------------|1---------------|

  F                G
e|1---------------|3---------------|
B|1---------------|0---------------|
G|2---------------|0---------------|
D|3---------------|0---------------|
A|3---------------|2---------------|
E|1---------------|3---------------|

After that, play Intro once.

Verse 2: Like Verse 1

Refrain 2: Play 1st part of Refrain twice

Solo:
                   C                G                Am               F
e|----------------|------3---------|----3-----3-----|------3---------|----3---1-----1-|
B|----------1-0-1-|----1-----1---2-|--2-----2-------|1---------1-----|--1-------1-----|
G|----------------|----------------|----------------|--------------4-|------------2---|
D|----------------|----------------|----------------|----------------|----------------|
A|----------------|----------------|----------------|----------------|----------------|
E|----------------|----------------|----------------|----------------|----------------|

  C                G                Am              F
e|----------------|----------------|--------------3-|----------------|
B|-------1----3h53|--5-3---5-6-5-3-|3h5---3---1-----|----------------|
G|0---------------|----------------|----------------|----------------|
D|----------------|----------------|----------------|----------------|
A|----------------|----------------|----------------|----------------|
E|----------------|----------------|----------------|----------------|

Refrain 3: same as Refrain 2

Outro: Same as Intro


Here the complete order:

Intro
Verse 1
Refrain 1
Intro
Verse 1
Refrain 2
Intro
Solo
Refrain 2
Intro

Hope you like it!
Tap to rate this tab
 
# A B C D E F G H I J K L M N O P Q R S T U V W X Y Z