Song name
# A B C D E F G H I J K L M N O P Q R S T U V W X Y Z

Tommy Torres - Nuna Imagine tab

|------------------------------|------------------------------|
|--------------------10-10-----|------------------------------|
|--12b---10b---9b~~------------|-------------12--11b----------|
|------------------------------|-------9-12-------------------|
|------------------------------|---10----------------(14)--12-|
|------------------------------|------------------------------|

|------------------------------|------------------------------|
|-------------------12-13-15b~-|---14p12--12h14--12h14--------|
|----12-14-16-16b~~------------|------------------------------|
|-12---------------------------|------------------------------|
|------------------------------|------------------------------|
|------------------------------|------------------------------|

|----------------12h15b--12----|------------------------------|
|---------12h14----------------|--14-12-12h14p12--------------|
|-/12-14-----------------------|------------------14~---------|
|------------------------------|------------------------------|
|------------------------------|------------------------------|
|------------------------------|------------------------------|

|------------------------------|------------------------------|
|----------------12-15-15b~~---|------------------------------|
|------------/14---------------|------------------------------|
|------9-12--------------------|------------------------------|
|--10--------------------------|------------------------------|
|------------------------------|------------------------------|
Tap to rate this tab
# A B C D E F G H I J K L M N O P Q R S T U V W X Y Z