Guitaretab - guitar tabs
Song name
# A B C D E F G H I J K L M N O P Q R S T U V W X Y Z

Tommy Tutone - 867-5309 Jenny tab

THIS SONG IS ACTUALLY PLAYED TUNED UP A 1/2 STEP

INTRO   (PLAY 1X)
lead guitar plays this riff a couple of times
throughout the song: just listen for them
E---0----0----0----0---------0----0----0----0---|
B--5----5----5----4-4-------5----5----5----4-4--|
G-6----7----6----4---4-----6----7----6----4---4-|
D-----------------------------------------------|
A-----------------------------------------------|
E-----------------------------------------------|


VERSE 1  (PLAY 10X)
E------0-0--------------|
B------3-3--------------|
G------2-2---2-2---4-4--|
D---4--------2-2---4-4--|
A---4--------0-0---2-2--|
E---2-------------------|


PRE CHORUS (PLAY 1X)
(jenny, I've got your number...)
E--------0~------------------0~---------------0~----------|
B--------3~------------------3~---------------3~----------|
G--------2~---2--4-----------2~---2~----------2~---2-4----|
D---2~--------2--4-------2~-------2~------2~-------2-4----|
A---2~--------0--2-------2~-------0~------2~-------0-2----|
E---0~-------------------0~---------------0~--------------|

CHORUS (PLAY 4X)
(867-5309)
E------0-0--------------|
B------3-3--------------|
G------2-2---2-2---4-4--|
D---4--------2-2---4-4--|
A---4--------0-0---2-2--|
E---2-------------------|


VERSE 2  (PLAY 8X)
(changes between palm muting and open)
E------0-0--------------|
B------3-3--------------|
G------2-2---2-2---4-4--|
D---4--------2-2---4-4--|
A---4--------0-0---2-2--|
E---2-------------------|


PRE CHORUS (PLAY 1X)
(jenny, I've got your number...)
E--------0~------------------0~---------------0~----------|
B--------3~------------------3~---------------3~----------|
G--------2~---2--4-----------2~---2~----------2~---2-4----|
D---2~--------2--4-------2~-------2~------2~-------2-4----|
A---2~--------0--2-------2~-------0~------2~-------0-2----|
E---0~-------------------0~---------------0~--------------|
[ Tab from: http://www.guitaretab.com/t/tommy-tutone/79892.html ]
CHORUS (PLAY 4X)
(867-5309)
E------0-0--------------|
B------3-3--------------|
G------2-2---2-2---4-4--|
D---4--------2-2---4-4--|
A---4--------0-0---2-2--|
E---2-------------------|


BRIDGE (PLAY 1X)
E---------------------------------------|
B---------------------------------------|
G--66666666-------------------2222-4444-|
D--66666666-22222222-44444444-2222-4444-|
A--44444444-22222222-44444444-0000-2222-|
E-----------00000000-22222222-----------|

E--------------------------------------|
B--------------------------------------|
G--66666666-------------------2222-4---|
D--66666666-22222222-44444444-2222-4---|
A--44444444-22222222-44444444-0000-2---|
E-----------00000000-22222222----------|


PRE SOLO (PLAY 1X)
E---0----0----0----0---------0----0----0----0---|
B--5----5----5----4-4-------5----5----5----4-4--|
G-6----7----6----4---4-----6----7----6----4---4-|
D-----------------------------------------------|
A-----------------------------------------------|
E-----------------------------------------------|

(PLAY 2X)
E------0-0--------------|
B------3-3--------------|
G------2-2---2-2---4-4--|
D---4--------2-2---4-4--|
A---4--------0-0---2-2--|
E---2-------------------|


SOLO
E-----------------------------------------------------------------|
B----------------------------------------------10-----12^-12^-----|
G-------------------9------9------11p9--9-11-11-------------------|
D-9^-7------7---9/11---9/11-----------11--------------------------|
A------9p7h9------------------------------------------------------|
E-----------------------------------------------------------------|

E-----------------------------------------------9-12/14-14~~------|
B-10-12----10----------------------------9-10-12------------------|
G--------11----9-11----9-------------9-11-------------------------|
D--------------------11---9~~----9/11-----------------------------|
A------------------------------12---------------------------------|
E-----------------------------------------------------------------|

(during the solo, the rythm guitar plays the same part as the verse)

REPEAT THE CHORUS UNTIL THE SONG ENDS

THAT'S IT! IT'S PRETTY SIMPLE
Related for 867-5309 Jenny tab
867-5309 Jenny chords by Tommy Tutone