Song name
# A B C D E F G H I J K L M N O P Q R S T U V W X Y Z

Tommy Walker - He Knows My Name tab

-------------------------------------------------------------------------------
                             He Knows My Name - Tommy Walker
-------------------------------------------------------------------------------

Solo in the key of C according to http://www.youtube.com/watch?v=NXKWsfbizB4

e|----------------------------------------------10-12-12---10--13-12-10------|
B|-------------------------------------10-12-13--------------13---------13~--|
G|-5-7-9h10-9--5---/9-9--7p5-7~----12----------------------------------------|
D|---------------7~--------------12------------------------------------------|
A|---------------------------------------------------------------------------|
E|---------------------------------------------------------------------------|

e|--------------------------------------------12-13-12p10--------------------|
B|-13--------------------------------------13-------------13~----------------|
G|-14-12h14--------------------------(9)-------------------------------------|
D|----------10-------10-14-14-12-12-10---------------------------------------|
A|--------------10h12---15-15-10-10-10---------------------------------------|
E|---------------------------------------------------------------------------|

************************************

| /   slide up
| \   slide down
| h   hammer-on
| p   pull-off
| ~   vibrato
| +   harmonic
| x   Mute note
| b   Bend
| pb  Pre-bend
| br  Bend release
| pbr Pre-bend release
| brb Bend release bend

************************************
Tap to rate this tab
# A B C D E F G H I J K L M N O P Q R S T U V W X Y Z