Song name
# A B C D E F G H I J K L M N O P Q R S T U V W X Y Z

Tomorrows Bad Seeds - Vices tab

Tabbed By: Trey Lewis
eMail: c h u c k n o r r i s @ h a w a i i a n t e l . n e t

I believe this is the first song tab for socal's very own Tomorrows Bad Seeds

The rhythm chord progression is as follows for the entire song:

   G#m     C#m     F#      B
e|-4-4-4-4-4-4-4-4-2-2-2-2-2-2-2-2-----------------------------------------|
B|-4-4-4-4-5-5-5-5-2-2-2-2-4-4-4-4-----------------------------------------|
G|-4-4-4-4-6-6-6-6-3-3-3-3-4-4-4-4-----------------------------------------|
D|-6-6-6-6-6-6-6-6-4-4-4-4-4-4-4-4-----------------------------------------|
A|-6-6-6-6-4-4-4-4-4-4-4-4-2-2-2-2-----------------------------------------|
E|-4-4-4-4---------2-2-2-2-------------------------------------------------|

These chords are arpeggiated over the rhythm something like this:

   G#m         C#m7        F#          B

e|-------4-----------7-----------2-----------2-----------------------------|
B|---------4-----------5-----------2-----------4---------------------------|
G|-----------4---6-------4-----------3---4-------4-------------------------|
D|---6-------------6---------4-------------4-------------------------------|
A|-----6-------4---------------4-------2-----------------------------------|
E|-4-----------------------2-----------------------------------------------|

After the intro the guitars break out into a skank rhythm for the rest of the 
song with the same chords as above. The entire song shares the same progression.

official website: http://www.tomorrowsbadseeds.com/
Tap to rate this tab
# A B C D E F G H I J K L M N O P Q R S T U V W X Y Z