Song name
# A B C D E F G H I J K L M N O P Q R S T U V W X Y Z

Tomorrows Bad Seeds - Early Prayers tab

Help us improve GuitareTab! Take a short survey!
Alright, this is my first tab, and I don't have the whole song quite yet but I'm getting close.
This is how I play the song and it's a combination of both guitars.
Standard Tuning.

Legend:
h = hammer on
p = pull off
b = bend / bend back
( ) = optional
/ = slide

Intro:

|---------------------------------|----------------------------|
|---------------------------------|-------------------- (3)----|
|---------------------------------|---(4)-(4)--(3)-(3)---4-----|
|---------------------------------|----5---5----4---4----4-----|
|--2----5----7----7b8b7----5----2-|----5---5----4---4----2-----|
|---------------------------------|----3---3----2---2----------|



|----------------------------------|-------------------------------------|
|----------------------------------|-------------------------------------|
|----------------------------------|-------------------------------------|
|--9----12----14b15b14----12----9--|---7h9p7------7----------------------|
|----------------------------------|-----------9------9---7---9----------|
|----------------------------------|------------------------------7---7--|
                                    (___________played quickly__________)


|---------------------------------|----------------------------------------|
|---------------------------------|---------------------3--5b6b5-p3--3-----|
|---------------------------------|---------------2--4------------------4--|
|---------------------------------|---------2--4---------------------------|
|--2----5----7---7b8b7----5----2--|---2--5---------------------------------|
|---------------------------------|----------------------------------------|
                                  (_____________played quickly_____________)


|----------------12b13b12---10---------|---------------------------------|
|--7---10---12-------------------12----|---------7-----------------------|
|--------------------------------------|---7h9-------9---7-------7-------|
|--------------------------------------|---------------------9-------9---|
|--------------------------------------|---------------------------------|
|--------------------------------------|---------------------------------|

|---------------------------------------------------------------------------|
|---------10---------10---------10---------10---------10---------10--10/12--|
|--9--11------9--11------9--11------9--11------9--11------9--11-------------|
|---------------------------------------------------------------------------|
|---------------------------------------------------------------------------|
|---------------------------------------------------------------------------|

|----------------------|--------------------------------------------------------------------------|
|12p10------10--10h12--|--15h17p15----------------------------------------------------------------|
|-------11-------------|------------16--14--16--14--11h14p11--11--9--11p9-------------------------|
|----------------------|---------------------------------------------------9/7/9--12--14b15b14--12|
|----------------------|--------------------------------------------------------------------------|
|----------------------|--------------------------------------------------------------------------|


|--10---10--------------------7---7--|
|--10---10-------10---10------7---7--|   (Repeat)
|-----------------9----9-------------|
|------------------------------------|
|------------------------------------|
|------------------------------------|
(________Short Up Strokes____________)


The rest is pretty much explainable and it repeats a little bit.
I don't have the solo yet either.
But there is a final bridge of power chords that goes like this:


|-----------------------|
|-----------------------|
|---7---------------4---|
|---7-------7-------4---|
|---5-------7-------2---|
|-----------5-----------|
(_each is played 8 strums_)



Then it goes back into the intro chords.
Hope you enjoy!

Related for Early Prayers tab