Song name
# A B C D E F G H I J K L M N O P Q R S T U V W X Y Z

Tomorrows Bad Seeds - Rollin tab

Dedicated 2 Robdukeit24, just cause...

h = hammer on
p = pull off
\/= slide


 Intro

e|-------------------|
B|-------------------|
G|----------5555-7777|
D|---7-5-------------|
A|-5-5-3-5--3333-5555|
E|-3-----3-----------|

e|------------------------------------------------------------|
B|-------12-------------------------------13-------------7----|
G|-12-12----12h14p12-11-11--14-12-11-9-9-----14-12-7-7-9---9-7|
D|------------------------------------------------------------|
A|------------------------------------------------------------|
E|------------------------------------------------------------|

Verse

e|--3---3---2---2---5---5---7---7|
B|--3---3---3---3---5---5---7---7|
G|--4---4---4---4---5---5---7---7|
D|--5---5---4---4---5---5---7---7|
A|--5---5---2---2---3---3---5---5|
E|--3---3------------------------|

Solo

e|-------------------------------------------------------------|
B|-15-15-15-15-15-13--13--13--12--12--12-----------------------|
G|---------------------------------------14--14--14--12--12--12|
D|-------------------------------------------------------------|
A|-------------------------------------------------------------|
E|-------------------------------------------------------------|

e|----------------------------------------------------------------------|
B|----------------------------------------------------------------------|
G|-12h14p12-------------12--------12h14---------------------------------|
D|----------14-12-12h14-----12h14-------12h14p12------------------------|
A|-----------------------------------------------14p12-------------12-14|
E|-----------------------------------------------------15-12-12-15------|

e|--------------------|
B|--------------------|
G|------12h14/16-14-12|
D|12h14---------------|
A|--------------------|
E|--------------------|
Tap to rate this tab
# A B C D E F G H I J K L M N O P Q R S T U V W X Y Z