Tomorrows Bad Seeds - Love Street tab

-----------------------------------------------------------------------------
                      Love Street - Tomorrows Bad Seeds
-----------------------------------------------------------------------------
Tabbed by: j.casquejo
Email: geehanski@yahoo.com


Chords: Cm, Bb 
e|--8-8-8-8-------6-6-6-6-------|
B|--8-8-8-8-(2x)--6-6-6-6-(2x)--|
G|--8-8-8-8-------7-7-7-7-------|
D|------------------------------|
A|------------------------------|
E|------------------------------|

Intro: Lead guitar (just improvise using the Cm pentatonic scale)
e|---------------------------------------------------------|
B|---------------------------------------------------------|
G|------8-10b12r10p8----8----------------------------------|
D|-8h10--------------10---10~--10p8----8-------------------|
A|----------------------------------10---10\8-6h8p6---6----|
E|--------------------------------------------------8---8~-|

e|---------------------------------------------------------|
B|---------------------------------------------------------|
G|-----------------8-10b12~-pb12r10-8~---------------------|
D|------------8h10----------------------8h10-8h10~~~-------|
A|---6-8-8/10----------------------------------------------|
E|-8-------------------------------------------------------|

Solo: Lead guitar
e|------------------------------------11-11-11-10~-8---------|
B|-11-13-13-11-13~--1111-1313-11-13~-----------------11------|
G|-----------------------------------------------------------|
D|-----------------------------------------------------------|
A|-----------------------------------------------------------|
E|-----------------------------------------------------------|

e|-11-(5x)-10-(3x)-8-----------------------------------------|
B|-------------------11---8h11p8----8------------------------|
G|-------------------------------10---10p8----8--------------|
D|-----------------------------------------10---10~~---------|
A|-----------------------------------------------------------|
E|-----------------------------------------------------------|

e|------------------------------------------------------------------|
B|------------------------------------------------------------------|
G|------8~------------------------------------------8-10b12r10-8----|
D|-8h10----10p8----8---------------------------8h10--------------10-|
A|--------------10--10\8-6h8p6--6-----6-8-8/10----------------------|
E|-----------------------------8-8--8-------------------------------|

e|---------------------11-13b15r13-11------11-(6x)-13b15r13-11------|
B|---------------11-13----------------11h13---(6x)-------------13~--|
G|----8-10-10/12----------------------------------------------------|
D|-10---------------------------------------------------------------|
A|------------------------------------------------------------------|
E|------------------------------------------------------------------|

Outro: Rhythm guitar
e|--8-8--6-6--6-6--3-3--|
B|--8-8--8-8--6-6--3-3--|
G|--8-8--8-8--7-7--3-3--|
D|----------------------|
A|----------------------|
E|----------------------|

************************************

| /   slide up
| \   slide down
| h   hammer-on
| p   pull-off
| ~   vibrato
| b   Bend
| pb  Pre-bend
| br  Bend release

***********************************
Tap to rate this tab
 
# A B C D E F G H I J K L M N O P Q R S T U V W X Y Z