Song name
# A B C D E F G H I J K L M N O P Q R S T U V W X Y Z

Tomorrows Bad Seeds - Roundtrip tab

-----------------------------------------------------------------------------
			Roundtrip - Tomorrows Bad Seeds
-----------------------------------------------------------------------------
Tabbed by: j.casquejo
Email: geehanski@yahoo.com


Chords: Fm, Cm, Bbm, Cm

Intro: Lead guitar
e|---------------------------------------------|
B|---------------------------------------------|
G|-------------------8.--8-10p8----8-----------|
D|----------6-8-8/10------------10---10p8-6----|
A|-/8~--6-8---------------------------------8--|
E|---------------------------------------------|

e|---------------------------------------------|
B|---------------------------------------------|
G|---------------------------------------------|
D|-----6-8-6-8b7r8--6h8p6---6------------------|
A|-6h8--------------------8---8p6-6/8~---------|
E|---------------------------------------------|

e|----------------------------------------------------------------------------|
B|----------------------9-11-11b13-(13)-(13)-(13)-(13)-(13)-b13r11-11-9-9-----|
G|--------------8--8-10---------------------------------------------------10\-|
D|-----6-8-8/10---------------------------------------------------------------|
A|-6-8------------------------------------------------------------------------|
E|----------------------------------------------------------------------------|


************************************

| /   slide up
| \   slide down
| h   hammer-on
| p   pull-off
| ~   vibrato
| b   Bend
| pb  Pre-bend
| br  Bend release

************************************
Tap to rate this tab
 
# A B C D E F G H I J K L M N O P Q R S T U V W X Y Z