Song name
# A B C D E F G H I J K L M N O P Q R S T U V W X Y Z

Tomorrows Bad Seeds - Early Prayers tab

-----------------------------------------------------------------------------
                     Early Prayers - Tomorrows Bad Seeds
-----------------------------------------------------------------------------
Tabbed by: j.casquejo
Email: geehanski@yahoo.com

Intro: Lead Guitar
e|---------------------------------------------------------------|
B|---------------------------------------------------------------|
G|-----------------------------------7--9--9b11r9--7-------------|
D|-------------------------------/9-------------------9----------|
A|------5--7--7b8r7--5-------------------------------------------|
E|--/7------------------7----------------------------------------|

e|---------------------------------------------------------------|
B|---------------------------------------------------------------|
G|---------------------------------------------------------------|
D|--9p7---7------------------------------------------------------|
A|------9---9\7-5h7-5-----------------5--7--7b8r7--5-------------|
E|--------------------7-7---------/7------------------7----------|

e|---------------------------------------------12b14r12--10------|
B|-------------------------------------10--12----------------12--|
G|----------------7-9b11r9-7------/11----------------------------|
D|------------7h9------------9-----------------------------------|
A|----5h7-7/9----------------------------------------------------|
E|--7------------------------------------------------------------|

e|---------------------------------------------------------------|
B|---------------------------------------------------------------|
G|-----7-9--9b11-7---7-------------------------------------------|
D|--9--------------9---9~~~--------------------------------------|
A|---------------------------------------------------------------|
E|---------------------------------------------------------------|

Lead Riff 1: Played after intro and after chorus
e|---------------------------------------------------------------|
B|-------10------10------10------10--10-10h12--12-----10h12~~----|
G|--9h11----9h11----9h11----9h11-------------------11------------|
D|---------------------------------------------------------------|
A|---------------------------------------------------------------|
E|---------------------------------------------------------------|

e|--10h12p10----10-----------------------------------------------|
B|-----------12----12p10----10-----------------------------------|
G|-----------------------11----11\9-7--------7-9-9b11r9-7~~------|
D|------------------------------------9----9---------------------|
A|---------------------------------------------------------------|
E|---------------------------------------------------------------|

Rhythm Guitar
Intro/Chorus:                 
    G   F#m Bm
e|----------------|
B|----------------|
G|----------4-----|
D|--5---4---4-----|
A|--5---4---2-----|
E|--3---2---------|

Verse/Ending: Use power chords for ending
    D   A   Bm
e|--5---5---7-----|
B|--7---5---7-----|
G|--7---6---7-----|
D|----------------|
A|----------------|
E|----------------|

Solo: Lead Guitar w/wah-wah
e|---------------------------------------------------------------|
B|-------10------10------10------10--10-10h12--12-----10h12~~----|
G|--9h11----9h11----9h11----9h11-------------------11------------|
D|---------------------------------------------------------------|
A|---------------------------------------------------------------|
E|---------------------------------------------------------------|

e|--10h12p10----10-----------------------------------------------|
B|-----------12----12p10----10-----------------------------------|
G|-----------------------11----11\9-7--------7-9-9b11r9-7~~------|
D|------------------------------------9----9---------------------|
A|---------------------------------------------------------------|
E|---------------------------------------------------------------|

e|---------------------------------------------------------------|
B|---------------------------------------------------------------|
G|---------------7-9b11~~~-9b11-9b11-9b11-9b11--9--9-9~~~--------|
D|-----------7h9-------------------------------------------------|
A|-----5h7/9-----------------------------------------------------|
E|--/7-----------------------------------------------------------|

e|------------10-12b14~~~-12b14-12b14-12b14-12b14--10--10-10------|
B|------10h12-------------------------------------------------12\-|
G|--/11-----------------------------------------------------------|
D|----------------------------------------------------------------|
A|----------------------------------------------------------------|
E|----------------------------------------------------------------|

************************************

| /   slide up
| \   slide down
| h   hammer-on
| p   pull-off
| ~   vibrato
| b   Bend
| brb Bend release bend

************************************
Tap to rate this tab
 
# A B C D E F G H I J K L M N O P Q R S T U V W X Y Z