Song name
# A B C D E F G H I J K L M N O P Q R S T U V W X Y Z

Tomorrows Bad Seeds - Sacred For Sale tab

/ = slide
h = hammer on
b = bend
r = release


Intro:
|------------------------------------------------------------------------------|
|------------10-----------10---------------------------------------------------|
|--///9----12---9------12------------9h10--------------------------------------|
|-----------------------------12------------10-----10/12-----9-----9b10r9------|
|------------------------------------------------------------------------------|
|------------------------------------------------------------------------------|


|------------------------------------------------------------------------------|
|---------10-----------10------------------------------------------------------|
|--9----12---9------12------------9h10-----------------------------------------|
|--------------------------12------------10-----10/12-----9----9b10r9---7///---|
|------------------------------------------------------------------------------|
|------------------------------------------------------------------------------|
Tap to rate this tab
 
# A B C D E F G H I J K L M N O P Q R S T U V W X Y Z