Song name
# A B C D E F G H I J K L M N O P Q R S T U V W X Y Z

Tomorrows Bad Seeds - Reflect tab

Reflect
Sacred For Sale
Tomorrows Bad Seeds

e|-----------------------------------------------------------------------|
B|-----------------------------------------------------------------------|
G|-----------------------------------------------------------------------|
D|-7-7-----7-7-----7-7-----7-7--5-5--3-3-----3-3-----3-3-----3-3--5-5----|
A|-5-5-----5-5-----5-5-----5-5--3-3--1-1-----1-1-----1-1-----1-1--3-3----|
E|-----------------------------------------------------------------------|

e|-----------------------------------------------------------------------|
B|-----------------------------------------------------------------------|
G|---------5-5-------------5-5-------------5-5---------------------------|
D|-----7-7-----7-7-----7-7-----7-7-----7-7-----7-7-----7-7-----2-2-------|
A|-5-5-------------5-5-------------5-5-------------5-5-----0-0-----------|
E|-----------------------------------------------------------------------|

e|-----------------------------------------------------------------------|
B|-----------------------------------------------------------------------|
G|---------2-2-------------2h3p2-----------2-2---------------------------|
D|-----3-3-----3-3-----3-3-------3-----3-3-----3-3-----3-3-----5-5-------|
A|-1-1-------------1-1-------------1-1-------------1-1-----3-3-----------|
E|-----------------------------------------------------------------------|
-
e|-----------------------------------------------------------------------|
B|-----------------------------------------------------------------------|
G|----------5---5-----------------------------5---5-------5-5------------|
D|----7------------7--------------------7-------------7-------7p5-5h7----|
A|-5-----5---------------------------5-----5-----------------------------|
E|-----------------------------------------------------------------------|

e|-----------------------------------------------------------------------|
B|-----------------------------------------------------------------------|
G|----------2---2-----------------------------2---2----------------------|
D|----3------------3--------------------3------------3-------------------|
A|-1-----1---------------------------1-----1-----------------------------|
E|-----------------------------------------------------------------------|

e|--5---5---5---5---5---5---5---3---1---1---1---1---1---1---1---3--------|
B|--6---6---6---6---6---6---6---5---3---3---3---3---3---3---3---5--------|
G|--7---7---7---7---7---7---7---5---3---3---3---3---3---3---3---5--------|
D|--7---7---7---7---7---7---7---5---3---3---3---3---3---3---3---5--------|
A|-----------------------------------------------------------------------|
E|-----------------------------------------------------------------------|

e|-----------------------------------------------------------------------|
B|-----------------------------------------------------------------------|
G|------------9--9--9--9-11--11--11--11----------------------------------|
D|--7---------x--x--x--x--x---x---x---x-------3---------5--5--5--5-------|
A|--5---X24---7--7--7--7--9---9---9---9-------1---X28---3--3--3--3-------|
E|-----------------------------------------------------------------------|
Tap to rate this tab
 
# A B C D E F G H I J K L M N O P Q R S T U V W X Y Z