Song name
# A B C D E F G H I J K L M N O P Q R S T U V W X Y Z

Tomorrows Bad Seeds - Warrior Poet tab

-------------------------------------------------------------------------------
                             WARRIOR POET - Tomorrows Bad Seeds
-------------------------------------------------------------------------------
Tabbed by: LostLegion
E-mail: cm.duffy@hotmail.com

Tuning: Standard (EADGBe)

Aplogies if you find this tab confusing.

   P.M.----------------------------|
e|---------------------------------------------------------------------------|
B|---------------------------------------------------------------------------|
G|---------------------------------------------------------------------------|
D|---------------------------------------------------------------------------|
A|---------4-4--4-0-0-2-4-4/5\4-2-0---REPEAT TWICE MORE!---------------------|
E|-2-2--2--------------------------------------------------------------------|

                                     REPEAT THIS PART TWICE!
 (0:09)                             ______________________________
e|---------------------------------------------------------------------------|
B|---------------------------------------------------------------------------|
G|---------------------------------------------------------------------------|
D|---------------------------------------------------------------------------|
A|---------4-4--9tp-----------------------4-4--4-0-0-2-4-4/5\4-2-0-----------|
E|-2-2--2------------9tp-7tp-5h7p5-2-2--2------------------------------------|

(0:21)
e|---------------------------------------------------------------------------|
B|---------------------------------------------------------------------------|
G|---------------------------------------------------------------------------|
D|---------------------------------------------------------------------------|
A|--------4-4--9tp-----------------------------------------------------------|
E|-2-2--2---------9tp-7tp-5h7p5-2--------------------------------------------|


************************************
| /   slide up
| \   slide down
| h   hammer-on
| p   pull-off
| tp  tremolo pick
************************************
Tap to rate this tab
# A B C D E F G H I J K L M N O P Q R S T U V W X Y Z