Song name
# A B C D E F G H I J K L M N O P Q R S T U V W X Y Z

Tomte - Kss Mich Wach Gloria tab

"Küss mich wach, Gloria" - Tomte - Heureka 

Tabbed by ZaB23
standart tuning, no capo

Intro:
e|-----------------|
h|-6-6-6-----3--5--|
g|-7-7-7-----3--5--|
d|-7-7-7-----3--5--|
a|-----------------|
e|-----------------|

1. Verse
e|-----------------------|
h|-6-6-6--6-8-6-5----3-5-|
g|-7-7-7----------5--3-5-|
d|-7-7-7-------------3-5-|
a|-----------------------|
e|-----------------------|

Refrain:
ab "den ich beruhigen kann"

e|------------------------------|
h|------------------------------|
g|-3-5-7-7--3-5-7--3-5-7-3--3-5-|
d|-3-5-7-7--3-5-7--3-5-7-3--3-5-|
a|-1-3-5-5--1-3-5--1-3-5-1--1-3-|
e|------------------------------|

1. Verse-Schema

Refrain-Schema (energischer ;))

Zwischenspiel:

e|-------|
h|-3-5-6-|
g|-3-5-7-|  1x
d|-3-5-7-|
a|-------|
e|-------|

e|-----------5-----------8--|
h|-3-5--6-8----8-6---6------|
g|-3-5-------------7---7----|
d|-3-5----------------------|   2x
a|--------------------------|
e|--------------------------|

e|----------5-----------8-8-8-|
h|-3-5--6-8---8-6---6---------|
g|-3-5------------7---7-------|
d|-3-5------------------------| 1x
a|----------------------------|
e|----------------------------|

diverse male:
e|-----5--------------5--------------5----------8-8-8-|
h|-6-8---8-6---6--6-8---8-6---6--6-8--8-6---6---------|
g|-----------7--------------7-------------7---7-------|
d|----------------------------------------------------|
a|----------------------------------------------------|
e|----------------------------------------------------|

nach dem 2. mal "du nennst es Pathos und ich nenn es Leben":

e|-------8-8-8-8-------6-6-5---|
h|-6-8-6---------6-8-6-------6-|
g|-----------------------------|
d|-----------------------------|
a|-----------------------------|
e|-----------------------------|

nach "küss mich Wach, Gloria"

e|------5--------------5----------------8-8-8-8-------6-6-5----|
h|-6-8----8-6---6--6-8---8-6---6--6-8-6---------6-8-6-------6--|
g|------------7--------------7---------------------------------|
d|-------------------------------------------------------------|
a|-------------------------------------------------------------|
e|-------------------------------------------------------------|

ich kann es riechen das wird ein heißes jahr
es kommt etwas auf mich zu
da ist keine dezenz in meinem sein
keine überlegung in meinem tun
was ist es wert in der welt
da ist ein brief in der post
es gint nur einen menschen den ich kenne
den ich beruhigen kann

ich lebte so lange am fluss und ich lebte da sehr gern.
es gibt dinge die kann man nicht übersteigen
küss mich wach gloria

nimm die dinge und schmeiß sie an die wand
aus den resten bauen wir ein haus groß wie ein song
sing mir ein lied gewidmet dem schönen der welt
flüchtig wie ein fuchs auf der flucht
für fehling und seinen stolz
ich war so arm ich habe alles geschorlt

ich lebte so lange am fluss und ich lebte da sehr gern.
es gibt dinge die kann man nicht übersteigen
küss mich wach gloria

und wir heben unser glas in demut
ich erinnere mich an alles und jeden
such dir jemanden, der dir nicht wehtut
du nennst das pathos ich nenne es leben!

küss mich wach gloria 
Tap to rate this tab
# A B C D E F G H I J K L M N O P Q R S T U V W X Y Z