Song name
# A B C D E F G H I J K L M N O P Q R S T U V W X Y Z

Tomte - Der Letzte Groe Wal tab

Der Letzte Große Wal - Tomte 
Album Heureka
Tab by Nic

There are 2 Guitars in the studio version; here always one part!

Intro

    8x  4x  4x  2x  7x  7x   10x 2x  2x  2x }2X

e|--------------------------------------------------------------------------|
B|--10----------------------------------------------------------------------|
G|--x---9---10--5---7---5-----10--9---5---5---------------------------------|
D|--7---x---x---x---x---x-----x---x---x---x---------------------------------|
A|------7---8---3---5---3-----8---7---3---3---------------------------------|
E|----------------------------------------1---------------------------------|

Vers (4x / Gitarre 2 ab 3.Durchlauf Improvisation in Dm/E#)

e|--10---6------------------------------------------------------------------|
B|--10---6---10--5----------------------------------------------------------|
G|--10---7---10--5----------------------------------------------------------|
D|--12---8---10--5----------------------------------------------------------|
A|--12---8---8---3----------------------------------------------------------|
E|--10---6------------------------------------------------------------------|

e|--------------------------------------------------------------------------|
B|--18--17--13------13------------------------------------------------------|
G|--x---x---x---10--x---10--7---5-------------------------------------------|
D|--15--14--10--x---10--x---x---x-------------------------------------------|
A|--------------8-------8---5---3-------------------------------------------|
E|--------------------------------------------------------------------------|

Chorus(2x)

e|--10---5------------------------------------------------------------------|
B|--10---5---6---1----------------------------------------------------------|
G|--10---5---5---3----------------------------------------------------------|
D|--12---7---5---3----------------------------------------------------------|
A|--12---8---3---1----------------------------------------------------------|
E|--10---5------------------------------------------------------------------|

Intro
Vers

2x
e|--------------------------------------------------------------------------|
B|--18--17--13------13------------------------------------------------------|
G|--x---x---x---10--x---10--5---7-------------------------------------------|
D|--15--14--10--x---10--x---x---x-------------------------------------------|
A|--------------8-------8---3---5-------------------------------------------|
E|--------------------------------------------------------------------------|

Chorus

Bridge

e|--------------------------------------------------------------------------|
B|--10--10--6---3-----------------------------------------------------------|
G|--x---x---5---x-----------------------------------------------------------|
D|--7---7---5---3-----------------------------------------------------------|
A|--5---8---3---1-----------------------------------------------------------|
E|--------------------------------------------------------------------------|

Chorus 

die letzten 4 Durchgänge im Chorus( einfach bisschen variieren )

e|---------------------------------------------------------------------------|
B|---------------------------------------------------------------------------|
G|---------------------------------------------------------------------------|
D|-------------------------------------12------------------------------------|
A|--8-8-8-8-10-10-10-10-12-12-12-12-12----12-10------------------------------|
E|---------------------------------------------------------------------------|

e|---------------------------------------------------------------------------|
B|---------------------------------------------------------------------------|
G|---------------------------------------------------------------------------|
D|---------------------------------------------------------------------------|
A|--8-8-8-8-10-10-10-10-12-12-12-12-10-10-10-10------------------------------|
E|---------------------------------------------------------------------------|


Ende

e|--------------------------------------------------------------------------|
B|---10-10-10-10-10---------------------------------------------------------|
G|---x--x--x--x--x----------------------------------------------------------|
D|---7--7--7--7--7----------------------------------------------------------|
A|---5--5--5--5--5----------------------------------------------------------|
E|--------------------------------------------------------------------------|





Tap to rate this tab
# A B C D E F G H I J K L M N O P Q R S T U V W X Y Z