Song name
# A B C D E F G H I J K L M N O P Q R S T U V W X Y Z

Tomte - Ich Sang Die Ganze Zeit Von Dir tab

Highlighted       Show chord diagrams
Tomte - Ich sang die ganze Zeit von dir

Buchstaben ueber der Stadt


Akkorde
e-4-----7-----5----4----------------------------------------------------------|
b-5-----9-----5----4----------------------------------------------------------|
g-6-----9-----6----5----------------------------------------------------------|
D-6-----9-----7----6----------------------------------------------------------|
A-4-----7-----7----6----------------------------------------------------------|
E-x----(0)----5----4----------------------------------------------------------|
 C#m    E     A    G#

Riff 1 wird unterm verse gespielt
         4x                            2x
e----------I-----------------I----------|I
b----------I-----------------I----------|I
g----------I-----------------I----------|I
D--6-6-6-6-I--9-9-9-9-2-2-2-2I--6-6-6-6-|I
A-4-4-4-4--I-7-7-7-7-0-0-0-0-I-4-4-4-4--|I
E----------I-----------------I----------|I

Riff 2
kommt immer mal wieder vor

Teil 1                  Teil 2
e---------------------I-------------------|
b---------------------I-------------------|
g-9p11-9---9p11-9-----I--13p14-13--9--11--|
D-11--11---11--11-----I--14----11--11-11--|
A---------------------I-------------------|
E---------------------I-------------------|
Intro
C#m....-E-A-C#m (2x)

C#m
Mit fester Stimme sag ich Dir

“hab keine Angst”
        E          A
und ich weiß nicht mehr
     C#m
habe ich Dir kürzlich erzaehlt

C#m
Daß bald etwas passiert, was Dir gefaellt
        E            A
und wir werden nicht vergessen,
C#m
wie furchtbar es war

C#m
Mein betrunkenes Gestotter

durch die Straßen,
          E
durch die Gassen
         A
weht ein heißer Wind,
C#m
der nur sagt
E      A        C#m
“Bitte bleib am leben”
A                   C#m
Weißt Du was Du mir bedeutest
          E
auf einem Platz in meinem Herz
A                      C#m
steht Dein Name an der Wand
              E
und ich will, dass Du es erfaehrst
A                       C#m
Ich werde immer an Dich glauben
E
egal was auch passiert
A                 C#m
Manche singen von ihm
        C#m                E      C#m
Ich sang die ganze Zeit von Dir.

Ich hatte keinen Hunger
Ich hatte einfach Durst
alles was ich verliere auf dem Weg

Ich weiß, ich werde sterben
Ich weiß, ich werde gehen
Auf dem Schild, das ich jetzt trage
kann man Dein Antlitz sehen

Es ist die Leidenschaft, die treibt
die Passion in Deinem Blick
ich war ein guter Junge
heute mache ich mich chic (2x)

Refrain

Es ist die Leidenschaft, die treibt
die Passion in Deinem Blick
ich war ein guter Junge
heute mache ich mich chic (2x)

Refrain

Manche singen von ihm
Ich sang Dir ganze Zeit von Dir.
Tap to rate this tab
# A B C D E F G H I J K L M N O P Q R S T U V W X Y Z