Song name
# A B C D E F G H I J K L M N O P Q R S T U V W X Y Z

Tomte - Korn Sprite tab

Zuerst mal muss die G-Saite auf A hochgestimmt werden. Ihr knnt das Lied zwar auch in
Standartstimmung spielen (dann alles auf G-Saite zwei Bnde hher greifen), ist so aber
einfacher und klingt auch bei ungebten Gitaristen sauber, Tomte spielen es selbst so.

Das ganze Lied wird fast nur mit Downstrokes gespielt. Den Rhythmus werde ich hier nicht
notieren, das ist bei diesem Lied berflssig.

Im Prinzip besteht dieses Lied nur aus einem Akkord, der transponiert und dessen Basston
variiert wird. Alles, was man sonst noch so im Lied hrt, wird vom Bass gespielt. Deshalb
klingt die Gitarre hie und da auch etwas dnne.

Strophe:


    C#5  | G#/C  |  Asus4  |  Dsus2/E

e|------------------------------------
h|------------------------------------
a|--11-------11-------7---------7-----
D|---X--------X-------X---------X-----
A|--11-------11-------7---------7-----
E|---9--------8-------5---------0-----


Refrain:

    Asus4 | C#sus4 | Hsus4
e|-------------------------
h|-------------------------
a|---7-------11-------9----
D|---X--------X-------X----
A|---7-------11-------9----
E|---5--------9-------7----



Zwischenspiel: (/ \ sind Legatoslides)


e|------------------------|---------------------------------|
h|------------------------|---------------------------------|
a|--7--9--9-9\7---7-6-4-2-|-7--9--9--9/11--(hier spielt    -|
D|--X--X--X-X\X---X-X-X-X-|-X--X--X--X-/X-- der Bass den   -|
A|--7--9--9-9\7---7-6-4-2-|-7--9--9--9/11-- Takt allein zu -|
E|--5--7--7-7\5-----------|-5--7--7--7----- ende; *       )-|





e|----------------------------------|
h|----------------------------------|
a|--7--9--9-7-7-X-7-7-X-4-4-X-2-2-X-|
D|--X--X--X-X-X-X-X-X-X-X-X-X-X-X-X-|
A|--7--9--9-7-7-X-7-7-X-4-4-X-2-2-X-|
E|--5--7--7-5-5-X-4-4-X-2-2-X-0-0-X-|


e|------------------------------|
h|------------------------------|
a|-------7-7---7-7---7-7--7-7---|
D|-------X-X---X-X---X-X--X-X---|
A|-------7-7---7-7---7-7--7-7---|
E|-4/5-5-5-5-5-5-5-5-5-5--5-5---| 3x wdh.

e|------------------------------|
h|------------------------------|
a|-------7-7--7-7-9-9-9-9-9-9-9-|
D|-------X-X--X-X-X-X-X-X-X-X-X-|
A|-------7-7--7-7-9-9-9-9-9-9-9-|
E|-4/5-5-5-5--5-5-7-7-7-7-7-7-7-|


* wenn ihr alleine spielt, knnt ihr hier natrlich den Basslauf mitspielen:
A|-12-11-9-7~ oder, damits authentischer klingt:
E|-5-4-2-0

Tap to rate this tab
# A B C D E F G H I J K L M N O P Q R S T U V W X Y Z