Song name
# A B C D E F G H I J K L M N O P Q R S T U V W X Y Z

Ton - Ich Bin Bereit tab

Highlighted       Show chord diagrams
-------------------------------------------------------------------------------
			     Ich bin bereit - ton
-------------------------------------------------------------------------------
Tabbed by: Daniel (.random)
Email: post@randommusic.de

Tuning: Standard eBGDAE

the whole thing is quite simple. actually it's the same chords for the whole song.

   D#  B  Cm  G#

e|-6---6---3---4---|
B|-8---6---4---4---|
G|-8---7---5---5---|
D|-8---8---5---6---|
A|-6---8---3---6---|
E|-----6-------4---|

the strumming is very easy as well. guess you can find it out on your own ;)

have fun with this and buy their album! it's fantastic.

check out their website: http://www.ton-band.de
Tap to rate this tab
# A B C D E F G H I J K L M N O P Q R S T U V W X Y Z