Song name
# A B C D E F G H I J K L M N O P Q R S T U V W X Y Z

Ton - Bruchstucke chords

Highlighted       Show chord diagrams
Bruchstücke von "Ton"
Gedacht für 2 Gitarren:

Gitarre 1 übernimmt die Akkorde
Gitarre 2 übernimmt das Zupfen der Tabs

Meine Coverversion auf YouTube:
http://www.youtube.com/watch?v=hUMK-gVHRT0

Am7: x02010
A7:  x02020
Dsus4: xx0233

Intro (2x)
 
  Bb              C            Dm
e|------------------------------------------------------------------------|
B|--6---8-8-6-----6---8-8-6-----6---8-8-6-----6---5-5-6-------------------|
G|5----5-------------5-------------5-------------5------------------------|
D|------------------------------------------------------------------------|
A|------------------------------------------------------------------------|
E|------------------------------------------------------------------------|

Verse:


Bb                    C
   Du warst bereit zu sterben und für dein Ziel zum
Dm
Ende dieser Welt und weiter zu gehen
Bb                    C
   Du warst bereit zu morden und hinter all den
Dm
Lügen nur das Gute zu sehen
                  Bb                     C
Doch dann kam die Zeit und dann warst du alt
              A7
Und alles vorbei


Zwischenspiel (über A7)
e|--5-5-5-3-1--0---------------------------------------------------|
B|--xxxxxxxxx--x---------------------------------------------------|
G|--xxxxxxxxx--x---------------------------------------------------|
D|--7-7-7-5-3--2---------------------------------------------------|
A|-----------------------------------------------------------------|
E|-----------------------------------------------------------------|

Bridge:

    Dm           Bb
Das Beste ist umsonst
                    C
Mit Geld nicht zu bezahlen
                      Am7          Bb
Und manchmal zieht es einfach nur dahin
      Dm         Bb
Das Beste ist umsonst
                 C
Ich hab es nie gefunden
                                     Am7, A7 (schneller Wechsel)
Und dann wird mir klar, du allein machst Sinn


Refrain:
              Bb                 C
Und alles was bleibt, alles was zählt
        Dm
ist in diesem Augenblick
              Bb              C
Und alles was war, nehmen wir mit
                Dm
Wir lassen nur Bruchstücke zurück

Zwischenspiel (2x)
   Bb            C              Dm
e|-----------------------------------------------------------------|
B|--6---8-8-6-----6---8-8-6-----6---8-8-6-----6---5-5-6------------|
G|----5-------------5-------------5-------------5------------------|
D|-----------------------------------------------------------------|
A|-----------------------------------------------------------------|
E|-----------------------------------------------------------------|

Verse 2:

Bb                             C
   Du musst diesen Kampf nicht kämpfen
                Dm
Und niemandem beweisen, wie stark du bist
Bb                                C
   Lass die Entscheidung nicht so fallen
                     Dm
Es könnte sein, dass du sie

morgen einfach besser triffst 
                    Bb                    C
Denn dann kommt die Zeit und dann bist du alt
            A7
Und alles bereut

Zwischenspiel (über A7)
e|--5-5-5-3-1--0----------------------------------------------|
B|--xxxxxxxxx--x----------------------------------------------|
G|--xxxxxxxxx--x----------------------------------------------|
D|--7-7-7-5-3--2----------------------------------------------|
A|------------------------------------------------------------|
E|------------------------------------------------------------|

Bridge:

Dm               Bb
Das Beste ist umsonst
                     C
Mit Geld nicht zu bezahlen
                      Am7         Bb
Und manchmal zieht es einfach nur dahin
    Dm           Bb
Das Beste ist umsonst
                  C
Ich hab es nie gefunden
                          Am7, A7 (schneller Wechsel)
Und dann wird mir klar, du allein machst Sinn


Refrain:
                Bb               C
Und alles was bleibt, alles was zählt
        Dm
ist in diesem Augenblick
              Bb               C
Und alles was war, nehmen wir mit
                 Dm
Wir lassen nur Bruchstücke zurück

Outro
(Uh oh oh, Uh oh oh)
Zwischenspiel über folgende Akkorde: Bb, C, Dm, Dsus4

e|-------------------------------------------------------------------|
B|--6-5-6-----6-5-6------6-5-6-8-8-6-5-6-----------------------------|
G|-------------------------------------------------------------------|
D|-------------------------------------------------------------------|
A|-------------------------------------------------------------------|
E|-------------------------------------------------------------------|

e|-------------------------------------------------------------------|
B|--6-5-6-----6-5-6------6-5-6-8-8-6-5-------------------------------|
G|-------------------------------------------------------------------|
D|-------------------------------------------------------------------|
A|-------------------------------------------------------------------|
E|-------------------------------------------------------------------|

(2x)- Bb, C, Dm
e|-------------------------------------------------------------------|
B|--6---8-8-6-----6---8-8-6-----6---8-8-6-----6---5-5-6--------------|
G|----5-------------5-------------5-------------5--------------------|
D|-------------------------------------------------------------------|
A|-------------------------------------------------------------------|
E|-------------------------------------------------------------------|


Refrain:
               Bb                C
Und alles was bleibt, alles was zählt
        Dm
ist in diesem Augenblick
              Bb              C
Und alles was war, nehmen wir mit
                 Dm
Wir lassen nur Bruchstücke zurück

Bb, C, Dm
e|-------------------------------------------------------------------|
B|--6---8-8-6-----6---8-8-6-----6---8-8-6-----6---5-5-6--------------|
G|5----5-------------5-------------5-------------5-------------------|
D|-------------------------------------------------------------------|
A|-------------------------------------------------------------------|
E|-------------------------------------------------------------------|

Bb, C, Dm (1x Anschlag jeweils => Ende)

    Bb     C         Dm
e|-------------------------------------------------------------------|
B|--6------8---------6-----------------------------------------------|
G|-------------------------------------------------------------------|
D|-------------------------------------------------------------------|
A|-------------------------------------------------------------------|
E|-------------------------------------------------------------------|
Tap to rate this tab
# A B C D E F G H I J K L M N O P Q R S T U V W X Y Z