Song name
# A B C D E F G H I J K L M N O P Q R S T U V W X Y Z

Tones On Tail - Twist tab

-------------------------------------------------------------------------------
			     Twist - Tones On Tail
-------------------------------------------------------------------------------
Tabbed by: spencerr216

This is a cool, easy song to learn. Sounds just about right to me. The guitar's 
effects is a fast delay setting and some reverb. So yeah, hope ya'll enjoi...

Tuning: Standard

Part 1: 0:31 / 1:15 / 4:23 / 2x
e|---------------------------------------------------------------------------|
B|---------------------------------------------------------------------------|
G|-16b--16b--16b--16br-16-14----------------14-------------------------------|
D|---------------------------16-14----14-16----------------------------------|
A|---------------------------------------------------------------------------|
E|---------------------------------------------------------------------------|

Part 2: 0:41 / 1:26 / 4:34 / 2x
e|---------------------------------------------------------------------------|
B|---------------------------------------------------------------------------|
G|-4b--4b--4b--4br-4-2------------2------------------------------------------|
D|---------------------4-2----2-4--------------------------------------------|
A|---------------------------------------------------------------------------|
E|---------------------------------------------------------------------------|

Part 3: 0:52 / 8x / 4:46
e|---------------------------------------------------------------------------|
B|---------------------------------------------------------------------------|
G|----------------10--12--12-12-10-------------------------------------------|
D|---------10--12------------------12-10-------------------------------------|
A|-10--12--------------------------------------------------------------------|
E|---------------------------------------------------------------------------|

Part 4: 1:37 / 4:02 / 4x
e|---------------------------------------------------------------------------|
B|---------------------------------------------------------------------------|
G|---------------------------------------------------------------------------|
D|---------------------------------------------------------------------------|
A|-----8-8-----8------8----8-8/10------5-5-----5------5----5-5/8-------------|
E|-6-6-----6-6---6--6----6---------3-3-----3-3---3--3----3-------------------|
|
e|---------------------------------------------------------------------------|
B|---------------------------------------------------------------------------|
G|---------------------------------------------------------------------------|
D|---------------------------------------------------------------------------|
A|---------------------------------------------------------------------------|
E|-6-6-6-6-6-6-6-6-6-6-6-6-6-6-6-6-3-3-3-3-3-3-3-3-3-3-3-3-3-3-3/------------|

Song Structure:

Part 1: 2x
Part 2: 2x
Part 3: 8x
Part 1: 2x
Part 2: 2x
Part 4: 4x
singing...
Part 4: 4x
Part 1: 2x
Part 2: 2x
Part 3: til' the song fades out.
************************************

| /   slide up
| \   slide down
| h   hammer-on
| p   pull-off
| ~   vibrato
| +   harmonic
| x   Mute note
| b   Bend
| pb  Pre-bend
| br  Bend release
| pbr Pre-bend release
| brb Bend release bend

************************************
Tap to rate this tab
 
# A B C D E F G H I J K L M N O P Q R S T U V W X Y Z