Guitaretab - guitar tabs
Song name
# A B C D E F G H I J K L M N O P Q R S T U V W X Y Z

Toni Basil - Mickey tab

MICKEY (Toni Basil)
Album: Word of Mouth

TABBED BY: Andy Tobita

Tunning: Standard


(CHORUS) 
C
Oh Mickey, you're so fine 
Bb					         C	
You're so fine, you blow my mind, hey Mickey, hey Mickey 
C
Oh Mickey, you're so fine 
Bb                                      C
You're so fine, you blow my mind, hey Mickey, hey Mickey 
C
Oh Mickey, you're so fine 
Bb                                 
You're so fine, you blow my mind, hey Mickey... 


(RIFF 1)
E|------0-----8-|
B|-1------8----|

[ Tab from: http://www.guitaretab.com/t/toni-basil/67082.html ]
(RIFF 2)
E|-8-8-8-6-6-6-5-5-5-3----1-1-1-1-1-3-3-3-3-3-|
B|-6-6-6-6-6-6-6-6-6-5----3-3-3-3-3-5-5-5-5-5-|
G|------------------------3-3-3-3-3-5-5-5-5-5-|
D|------------------------3-3-3-3-3-5-5-5-5-5-|
A|------------------------1-1-1-1-1-3-3-3-3-3-|
E|---------------------------------------------|

E|-8-8-8-6-6-6-5-5-5-3-------------------------|
B|-6-6-6-6-6-6-6-6-6-5-------------------------|
G|------------------------------3----------5---|
D|----------------------------3--------2-5-----|
A|------------------------1-5--------3---------|
E|---------------------------------------------|


(VERSE RIFF)
E|-------------------|-------------------|
B|-------------------|-------------------|
G|----5------5--5----|----3------3-3----|
D|-------------------|------------------|
A|-3-----3---------3-|-1-----1---------1-|
E|-------------------|-------------------|
	C			Bb
Related for Mickey tab