Song name
# A B C D E F G H I J K L M N O P Q R S T U V W X Y Z

Toni Braxton - Shadowless tab

-------------------------------------------------------------------------------
			    Shadowless-Toni Braxton
-------------------------------------------------------------------------------
Tabbed by:Jeff Kamungu
Email:geoffykom@yahoo.com

Tuning:Standard

Intro:
       G            D/F#        Em                               Am7

e|------------|------------|------------|----------------|-------------------|
B|----3-------|----3-------|----3-------|-1/3--3\1-----0-|-1---------1-------|
G|-4----------|-4----------|-4----------|-2/4--4\2-----0-|------0------------|
D|------------|------------|------------|----------------|----2---2----------|
A|------------|------------|------------|----------------|-0-----------------|
E|-3----------|-2-2-2------|-0-----0----|----------------|-------------------|


       B7
e|------2--------------------------------------------------------------------|
B|------0--------------------------------------------------------------------|
G|------2--------------------------------------------------------------------|
D|------1--------------------------------------------------------------------|
A|--0-1-2--------------------------------------------------------------------|
E|---------------------------------------------------------------------------|

Start Verse
ooooooooh boy          where are you..              can you.....
    
         Gmaj7             Am7                          G

e|-----2--2-----2----|--------0----0---|----------|--------------------------|
B|-----3--3-----3----|--------1----1---|-0h1-0----|-----3--------------------|
G|-----0--0-----0----|--------0----0---|-0h2-0--2-|-4------------------------|
D|-----0--0-----0----|--------2----2---|----------|--------------------------|
A|-------------------|---0-2--0----0---|----------|--------------------------|
E|-3---------3-------|-3---------------|----------|-3------------------------|
                                    when i was      down

      D/F#               Em                                 Am7

e|------------------|--------------|--------------|------0-------3----3------|
B|-----3------------|-----3--------|-1/3--1-0-----|-1----1------1------------|
G|-4----------------|-4------------|-2/4--2-0-----|-0----0-----0-------------|
D|------------------|--------------|--------------|-2----2----2--------------|
A|------------------|--------------|--------------|-0----0---0---------------|
E|-2----------------|-0---0--------|--------------|--------------------------|
                                                         
                   
                            Gmaj7       Am7          

e|-----------------|-2--2--2--2--|--------3--3--3---|------------------------|
B|-0h1---0---------|-3--3--3--3--|--------1--1--1---|-0h1--0-----------------|
G|-0h2---0--2------|-0--0--0--0--|--------0--0--0---|-0h2-------2------------|
D|-----------------|-0--0--0--0--|--------2--2--2---|------------------------|
A|-----------------|-2--2--2--2--|---0--2-0--0--0---|------------------------|
E|-----------------|-3--3--3--3--|-3----------------|------------------------|
       impossible to see
        G       D/F#     Em                        Am7           B7
     
e|----------|---------|--------|------------|--------------|-----2-----------|
B|----3-----|----3----|----3---|-1/3--1--0--|-1----------1-|-----0-----------|
G|-4--------|-4-------|-4------|-2/4--2--0--|------0-------|-----2-----------|
D|----------|---------|--------|------------|----2----2----|-----1-----------|
A|----------|---------|--------|------------|-0----------0-|-0-1-2-----------|
E|-3--------|-2-------|-0------|------------|--------------|-----------------|

Chorus:

      Em        Am7         Cmaj7       D/F#
    
e|-0----0----|-0---0----|-0---0----|-0---0-----------------------------------|
B|-0----0----|-1---1----|-0---0----|-3---3-----------------------------------|
G|-0----0----|-0---0----|-0---0----|-2---2-----------------------------------|
D|-2----2----|-2---2----|-2---2----|-0---0-----------------------------------|
A|-2----2----|-0---0-0--|-3---3----|-x---x-----------------------------------|
E|-0----0--0-|----------|--------0-|-2---2-----------------------------------|

     Em        Am7         Cmaj7       B
    
e|-0----0----|-0---0----|-0---0----|-2--------3------------------------------|
B|-0----0----|-1---1----|-0---0----|-5-------4-------------------------------|
G|-0----0----|-0---0----|-0---0----|-2------2--------------------------------|
D|-2----2----|-2---2----|-2---2----|-4-----4---------------------------------|
A|-2----2----|-0---0-0--|-3---3----|-2----2----------------------------------|
E|-0----0--0-|----------|----------|-----------------------------------------|


Back to Verse
Chorus twice


Bridge

e|-----7---------------7----7-------------7------------------7--------7------|
B|-----8---------------8--8---------------8--8---------------8----8----------|
G|---9-----------8--8---------------7--7--------------6--6-------------------|
D|-9----------9------------------9----------------9--------------------------|
A|---------------------------------------------------------------------------|
E|---------------------------------------------------------------------------|


  
       Cmaj7      Am7        B7sus    B7
e|--0---------|--0----------|-2--------2-------------------------------------|
B|--0---------|--1----------|-5--------4-------------------------------------|
G|--0---------|--0----------|-2--------2-------------------------------------|
D|--2---------|--2----------|-4--------4-------------------------------------|
A|--3---------|--0----------|-2--------2-------------------------------------|
E|------------|-------------|------------------------------------------------|


gotta make it right.......

    G       Am7         Cmaj7       D/F#
    
e|-3----0----|-0---0----|-0---0----|-0---0-----------------------------------|
B|-0----0----|-1---1----|-0---0----|-3---3-----------------------------------|
G|-0----0----|-0---0----|-0---0----|-2---2-----------------------------------|
D|-2----2----|-2---2----|-2---2----|-0---0-----------------------------------|
A|-2----2----|-0---0-0--|-3---3----|-x---x-----------------------------------|
E|-3----0--0-|----------|--------0-|-2---2-----------------------------------|

continue with chorus...


"Shadowless"

[Verse 1:]
Ooh boy where are you now
You came and you rescued me when I was down.
Now I'm shadowless, life is such a mess, where did we go wrong
Impossible to see, I'm supposed to be, 'cause my light is gone

[Chorus:]
Gotta make it right with you, you baby
So tell me what I gotta do, to make you come back home

[Verse 2:]
Ooh boy how can this be
I remember every second you were here with me
Now I'm shadowless, think I was once blessed just to have you by side (yeah yeah)
But then you went away and suddenly the rain washed away my sunny skies (ooh yeah )

[Chorus 2:]
Gotta make it right with you, you baby
So tell me what I gotta do (yea yea yeah), to make you come back home
Gotta make it right with you, you baby (yea yea yeah)
So tell me what I gotta do to make you come back home

[Verse 3:]
Cause I'm running down a street, trying to find the answers
When I'm feeling incomplete, see the truth is what I'm after
Why'd you go (yeah) why'd you leave took the reflection from me

[Chorus 3:]
Gotta make it right yeah so right baby yeah yeah yeah
So tell me what I gotta do (baby yeah), to make you come back home
Gotta make it right with you , (yea yea yeah), you baby
So tell me what I gotta do to make you come back home



Tap to rate this tab
 
# A B C D E F G H I J K L M N O P Q R S T U V W X Y Z