Guitaretab - guitar tabs
Song name
# A B C D E F G H I J K L M N O P Q R S T U V W X Y Z

Toni Gonzaga - Catch Me Im Fallin tab

To Ms. Kristeen Jean Babano..Ł

Tabber: Ric Tobias
Friendster: Clinshen.klay@yahoo.com

Intro:

(Rhythm): G Ė Bm Ė Em Ė C Ė D
(lead part):
e|---------7-----7-----7------------------------------s7ó8p7----10|
B|-8-8h10----10----10-----10--8-8h10p8--7-----7-8----3------------|
D|-------ó---------------------------------8----------------------|
A|-----ó----------------------------------------------------------|
E|----------------------------------------------------------------|
G|----------------------------------------------------------------|

Verse:

I donít know why but when i look in your eyes
I feel something that seems so right
Youíve got yours iíve got mine
I think iím loosing my mind
Coz i shouldnít feel this way
        E         A
e|--------------------|
B|--------------------|
D|---1----2-ó---------| 4x
A|---2---ó2-----------|
E|---2----------------|
G|--------------------|

Pre Chorus:

C#m           A
Catch me iím falling for you
       F#m               B
And i donít know what to do

e|---------------------|
B|---5-----------4-----|
D|---6----2-ó----4-----|
A|---6---ó2--4---4-----|
E|---4-------4---2-----|
G|-----------2---------|

Chorus:

         G            Bm
How can something so wrong
         Em
Feel so right all along
C             D
Catch me iím falling for you
         G          Bm
How can time be so wrong
         Em
For love to come along
C             D
Catch me iím falling you
         Am
How can love let it go
            Bm
When it has no place to go
       Bm7               E
And i canít go along pretending
      Am                D
That love isnít here to stay
                         Intro
Catch me iím falling for you

Verse 2:
[ Tab from: http://www.guitaretab.com/t/toni-gonzaga/92588.html ]
If i could just walk away
Without you floating today
I would die just thinking of you
I know we canít therefore be more than friends you and me
But why do i feel this way
           E         A
e|--------------------|
B|--------------------|
D|---1----2-ó---------| 4x
A|---2---ó2-----------|
E|---2----------------|
G|--------------------|

Pre Chorus:

C#m           A
Catch me iím falling for you
       F#m               B
And i donít know what to do

e|---------------------|
B|---5-----------4-----|
D|---6----2-ó----4-----|
A|---6---ó2--4---4-----|
E|---4-------4---2-----|
G|-----------2---------|

2nd chorus:

         G            Bm
How can something so wrong
         Em
Feel so right all along
C             D
Catch me iím falling for you
         G          Bm
How can time be so wrong
         Em
For love to come along
C             D
Catch me iím falling you
       Am                       Bm
Maybe someday iíll see why love did this to me
      Bm7               E
Coz i canít go along pretending
      Am                 D
That love isnít here to stay
                         G-Bm-Em
Catch me iím falling for you
C             D
Catch me iím falling for you

Bridge:
           Bm                      E
And itís wrong for me to feel this way
       C                            D
Coz i donít know what to do without you
                G-Bm-Em
Iím falling for you
C              D
Catch me iím falling for you
          G         (Paused)
How can something so wrong?
         Em
Feel so right all along
C        D
Catch me i'm fallin from you....

(outro part):
e|---------7-----7------7--------------------------------s7ó-5-----------|
B|---8h10----10----10------10--8-8h10p8--7-----7-8----3-------8-8h10--8--|
D|-------ó---------------------------------8-----------------------------|
A|-----ó-----------------------------------------------------------------|
E|-----------------------------------------------------------------------|
G|-----------------------------------------------------------------------|
Related for Catch Me Im Fallin tab