Song name
# A B C D E F G H I J K L M N O P Q R S T U V W X Y Z

Toni Kater - Wo Bist Du tab

Help us improve GuitareTab! Take a short survey!
Wo bist du 

von Toni Kater -  www.toni-kater.de/

transkribiert von Christian Reindel (creindel@gmx.de)

standard tuning

   vers riff 1   
E:|------------------------------------------------------------------|
B:|------------------------------------------------------------------|
G:|------------------------------------------------------------------|
D:|------------------------------------------------------------------|
A:|-7-7-7-/-2-2-2-2-3-3-3-3-----------------2-2-2-2-3-3-3-3-6-6-6-6--|
E:|-------------------------2-2-2-2-0-0-0-0--------------------------|

Sei bei mir
Fr einen Tag
Fr eine Nacht
Fr kurze Zeit
Schalt den Schmerz 
Einfach aus 
Bring mein Herz in Sicherheit
Weit du nicht
Wolang es geht
Mach dich trotzdem auf den Weg
Breite Deine Arme aus
Flieg, soweit es geht

   chorus riff 1 - 4 x spielen
E:|--------------------------------------------------------------------|
B:|--------------------------------------------------------------------|
G:|--------------------------------------------------------------------|
D:|--------------------------------------------------------------------|
A:|-3-3-3-3-3-3-3-3----------------------------------2-2-2-2-2-2-2-2---|
E:|-----------------5-5-5-5-5-5-5-5-0-0-0-0-0-0-0-0--------------------|

Wo bist du
La alles los und komm zu mir
Egal, wie weit es ist
Komm zu mir
Wo bist du
La alles los und komm zu mir
Egal, wie weit es ist
Sei bei mir

   break riff 1 - 2 x spielen
E:|---------------------------------------------------------|
B:|---------------------------------------------------------|
G:|---------------------------------------------------------|
D:|-9-9----4-4----5-5-----------9-9----4-4----5-5----8-8----|
A:|-7-7----2-2----3-3----4-4----7-7----2-2----3-3----6-6----|
E:|----------------------2-2--------------------------------|


   vers riff 2   
E:|------------------------------------------------------------------|
B:|------------------------------------------------------------------|
G:|------------------------------------------------------------------|
D:|------------------------------------------------------------------|
A:|-7-7-7-/-2-2-2-2-3-3-3-3-----------------2-2-2-2-3-3-3-3-6-6-6-6--|
E:|-------------------------2-2-2-2-0-0-0-0--------------------------|

Sei mein Schiff
Im Ozean
Bring mich durch die Flut
Komm zu mir
Ich bin hier 
Elektrisier mich
Bis es wehtut
Alles, was unmglich ist
Mach es mit mir mglich
Und wenn es Zeit ist
Zu gehen
Dann gehen wir

   chorus riff 2 - 4 x spielen
E:|--------------------------------------------------------------------|
B:|--------------------------------------------------------------------|
G:|--------------------------------------------------------------------|
D:|--------------------------------------------------------------------|
A:|-3-3-3-3-3-3-3-3----------------------------------2-2-2-2-2-2-2-2---|
E:|-----------------5-5-5-5-5-5-5-5-0-0-0-0-0-0-0-0--------------------|

Wo bist du
La alles los und komm zu mir
Egal, wie weit es ist
Komm zu mir
Wo bist du
La alles los und komm zu mir
Egal, wie weit es ist
Sei bei mir

   break riff 2 - 2 x spielen
E:|---------------------------------------------------------|
B:|---------------------------------------------------------|
G:|---------------------------------------------------------|
D:|-9-9----4-4----5-5-----------9-9----4-4----5-5----8-8----|
A:|-7-7----2-2----3-3----4-4----7-7----2-2----3-3----6-6----|
E:|----------------------2-2--------------------------------|


   
E:|-------------------------------------------------------------------------|
B:|--------0------------3------------0--------------------------------------|
G:|------0---0--------4---4--------0---0------------------------------------|
D:|----2-------0----4-------4----2-------0----------------------------------|
A:|--3------------2------------3------------2-2-2-2-2-2-2-2-2-2-2-2-2-2-2-2-|
E:|-------------------------------------------------------------------------|

Cuando llegas?
Donde eres, cario
Est aqu
Mi corazn


zurck zum Chorus riff - 4 x spielen 

dann die letzten Akkorden

E:|-----------------------------------|
B:|--------0-----------1-----0--------|
G:|--------0-----------2-----0--------|
D:|--------2-----------2-----2--------|
A:|-3---3--3----0---0--0-----2--------|
E:|--------------------------0--------|

end.
Related for Wo Bist Du tab