Song name
# A B C D E F G H I J K L M N O P Q R S T U V W X Y Z

Tonic - Celtic Aggresion tab

Capo III (All chords and notes relative to capo position-play as if

everything was in the open position)

Main Riff (Verse-acoustic & electric guitar simile)

C Dadd4 C ^ ^ ^

----0-/---0--0-0---0--0-/-0--0--0-0----0-x-0--0--0-x-0--0-0----0-x-0--0--0-0-|
----1-/---3--3-3---3--3-/-1--1--1-1----1-x-1--1--1-x-1--1-1----1-x-1--1--1-1-|
----0-/---0--0-0---0--0-/-0--0--0-0----0-x-0--0--0-x-0--0-0----0-x-0--0--0-0-|
----2-/---4--4-4---4--4-/-2--2--2-2----2-x-2--2--2-x-2--2-2----2-x-2--2--2-2-|
----3-/---5--5-5---5--5-/-3--3--3-3----3-x-3--3--3-x-3--3-3----3-x-3--3--3-3-|
-----------------------------------------------------------------------------|

Lead guitar riff during 1st verse(play twice)

----3------2-----------3----2----------------|e-stg
------3------3---1-------3----3---1----------|b-stg

Lead guitar riff during 2nd verse(w/variations)

--------------------------------------------|
-----------3----------1----------0----------|
--------------0----------0-----------0------|
-------4---------4----------2------------2--|
----5---------------------------------------|
--------------------------------------------|

Chorus Riff

G ^ C ^ ^

---3---3-3---3-3-x--0--0--0-x--0--0-0--0-x--0--0--0-|
---3---3-3---3-3-x--1--1--1-x--1--1-1--1-x--1--1--1-|
---0---0-0---0-0-x--0--0--0-x--0--0-0--0-x--0--0--0-|
---0---0-0---0-0-x--2--2--2-x--2--2-2--2-x--2--2--2-|
---2---2-2---2-2-x--3--3--3-x--3--3-3--3-x--3--3--3-|
---3---3-3---3-3-x----------------------------------|

Interlude(Gtr. 1)

-------------7----------7----------------------0-----|e-stg
---------5----------3-----------------------------3--|b-stg
-----7----------5------------------------------------|g-stg

Interlude(Gtr. 2)

-----------------------------------------------------|This part is primarily
-----------------------------------------------------|played as a lower octave
-----------4--------------4--------------------------|of the 1st guitar, but
-------2---------------0---------2-0-0-0^2---0-------|there are some small
---0----------------3--------------------------------|variations not tabbed.
-----------------------------------------------------|

Bridge v is played 3 x

-----------------------0------/---0--0--0-0--0--0--0-0----0---0-0--0--0-0--|
----/3---0--0^1--------1------/---3--3--3-3--3--3--3-3----1---1-1--1--1-1--|
-------------------0---0------/---0--0--0-0--0--0--0-0----0---0-0--0--0-0--|
-----------------------2------/---4--4--4-4--4--4--4-4----2---2-2--2--2-2--|
-----------------------3------/---5--5--5-5--5--5--5-5----3---3-3--3--3-3--|
---------------------------------------------------------------------------|

-0--0-/-0--0--0-0---0--0--0-0----0--0--0--0----|Go back to chorus, then main
-1--1-/-3--3--3-3---3--3--3-3----1--1--1--1----|verse riff, end on C and fade
-0--0-/-0--0--0-0---0--0--0-0----0--0--0--0----|out (just listen for the
-2--2-/-4--4--4-4---4--4--4-4----2--2--2--2----|changes)
-3--3-/-5--5--5-5---5--5--5-5----3--3--3--3----|


^ above x's represent up-picks
^ above notes represents a hammer-on
/ represent slides (the whole chord)
x represents a muted, or muffled string, but it is picked
The rhythm may feel akward at first, but mess around with it and it
should come to you. Good luck.......
Tap to rate this tab
 
# A B C D E F G H I J K L M N O P Q R S T U V W X Y Z