Song name
# A B C D E F G H I J K L M N O P Q R S T U V W X Y Z

Tonic - Tonis Mean To Me tab

Tuning: Capo II fret

Main riff:

|----------------------------|
|----------------------------|
|----------------------------|
|----------------------------|
|-----------0--2--4--6--2----|
|--0--2--4-------------------|

Chorus:
(The rythm on this probably ain't exactly right on, but if you listen
to the song while you play, you'll get it)

|-----------------------------------|
|-----------------------------------|
|--4--4-44--xx----------------------|
|--4--4-44--xx---6--6-66---444-444--|
|--2--2-22--xx---6--6-66---444-444--|
|----------------4--4-44---222-222--|

|---------------------------------------------------|
|---------------------------------------------------|
|---4--4-44--xx-------------------------------------|
|---4--4-44--xx---6--6-66---------------------------|
|---2--2-22--xx---6--6-66------------0--2--4--6--2--|
|-----------------4--4-44---0--2--4-----------------|

Behind the solo, they play the main riff once, then play the chorus
part...twice, I believe
Tap to rate this tab
# A B C D E F G H I J K L M N O P Q R S T U V W X Y Z