Song name
# A B C D E F G H I J K L M N O P Q R S T U V W X Y Z

Tonic - Waltz With Me tab

"Waltz With Me" by Tonic
Standard Tuning, Capo 3rd Fret
tabbed by thefoxster55@hotmail.com, with Electric Guitar part by jjhand


Acoustic Chords (from Capo): 
        Eb/Bb  Cm    Ab    Bb    Ab2
         0     0     1     3     x   
         1     1     1     3     x
         0     2     2     4     0
         2     2     3     5     3
         3     0     3     5     3
         3     x     1     3     1

Eb/Bb            Cm
Waltz with me my love
Eb/Bb            Cm
Tell me what you're dreamin of
Ab            Eb/Bb            Cm
Hold me now, We can share our love
Ab         Bb       Eb/Bb
Waltz with me my love



2nd Verse
Eb/Bb               Cm
Paint your face for me
Eb/Bb               Cm
Only here is where I wanna be
Ab                  Eb/Bb         Cm
next to you, while I watch you sleep
Ab        Bb        Eb/Bb
Waltz with me, my love


2nd verse on "Electric 1" (standard tuning, light overdrive)
e|----------------|-----------------|----------------|----------------|
B|-----4-3--4-----|------4-3--4-----|-----4-3--4-----|-----4-3--------|
G|-------------3--|--------------3--|-------------5--|----------5--3--|
D|----------------|-----------------|----------------|----------------|
A|----------------|-----------------|----------------|----------------|
E|----------------|-----------------|----------------|----------------|

e|----------------|-----------------|----------------|----------------|
B|-----4-3--4-----|------4-3--4-----|-----4-3--4-----|-----4-3--4-----|
G|-------------3--|--------------3--|-------------5--|-------------3--|
D|----------------|-----------------|----------------|----------------|
A|----------------|-----------------|----------------|----------------|
E|----------------|-----------------|----------------|----------------|

e|----------------|-----------------|----------------|----------------|
B|-----4----4-----|------4----4-----|-----4-3--4-----|-----4-3--4-----|
G|-------3-----3--|--------3-----3--|-------------3--|-------------5--|
D|----------------|-----------------|----------------|----------------|
A|----------------|-----------------|----------------|----------------|
E|----------------|-----------------|----------------|----------------|

e|----------------|-----------------|----------------|----------3-----|-------3--------|
B|-----4-3--4-----|------4-3--4-----|-----4-3--------|-----4----4--4--|-----4----4-----|
G|-------------3--|--------------3--|----------3-----|-------3-----3--|-------------3--|
D|----------------|-----------------|----------------|----------------|----------------|
A|----------------|-----------------|----------------|----------------|----------------|
E|----------------|-----------------|----------------|----------------|----------------|





Solo (1:41)
 
   Elec. 1
e|----------------|-----------------|----------------|----------------|
B|-----4-3--4-----|------4-3--4-----|-----4-3--4-----|-----4-3--------|
G|-------------3--|--------------3--|-------------5--|----------5--3--|
D|----------------|-----------------|----------------|----------------|
A|----------------|-----------------|----------------|----------------|
E|----------------|-----------------|----------------|----------------|
 |
 | Solo, w/ overdrive
e|----------------|-----------------|----------------|----------------|
B|----------------|-----------------|----------------|----------------|
G|-----10b12~-----|-(b12)-----------|------------8-7-|-(7~)-----------|
D|----------------|-----------------|---------10-----|----------------|
A|----------------|-----------------|----------------|----------------|
E|----------------|-----------------|----------------|----------------|
                    "la la la la la la la                          Ooh"


  Elec. 1
e|----------------|-----------------|------------------|----------------|
B|-----4-3--4--3--|-----4-3---------|-----4----4-------|-------4------4-|
G|-------------3--|----------3--3---|-------3-----3----|-----3------3---|
D|----------------|-----------------|------------------|-1--------0-----|
A|----------------|-----------------|------------------|----------------|
E|----------------|-----------------|------------------|----------------|
 |
 |Solo 
e|----------------|-----------------|------------------|----------------|
B|-11b13r11-------|-8b9r8-----------|----11\----11\----|-8--------------|
G|----------10----|---------8-------|-/12-----10-----8-|----------------|
D|----------------|-----------------|------------------|----------------|
A|----------------|-----------------|------------------|----------------|
E|----------------|-----------------|------------------|----------------|





Bridge (Chord names shown are for Acoustic with 3rd fret Capo)

  Elec. 1
  Cm      Bb        Eb/Bb
e|-----------------|-----------------|-------------------|-----------------|
B|-4------6--------|-----------------|-4-------6---------|-------8----8----|
G|-5------7--------|-8---------------|-5-------7---------|-8-----8h10-8----|
D|-5------8--------|-8----------8----|-5-------8---------|-8-------------8-|
A|-3------8--------|-6------8h10---8-|-3-------8---------|-6---------------|
E|--------6--------|-----------------|---------6---------|-----------------|
  "Tell me somethin                     Will we be broken down?"

  Cm      Bb        Eb/Bb
e|-----------------|-----------------|-------------------|-----------------|
B|-4------6--------|-----------------|-4-------6---------|-----------------|
G|-5------7--------|-8---------------|-5-------7---------|-8---------------|
D|-5------8--------|-8----------8----|-5-------8---------|-8----------8----|
A|-3------8--------|-6------8h10---8-|-3-------8---------|-6------8h10---8-|
E|--------6--------|-----------------|---------6---------|-----------------|
  "Tell me somethin                     Will we be broken down?"


  Cm      Bb       Ab2
e|----------------|-----------------|
B|-4------6-------|-----------------|
G|-5------7-------|-3---------------|
D|-5------8-------|-6---------------|  Electric can use capo to 
A|-3------8-------|-6---------------|  play this Ab6 chord easier
E|--------6-------|-4---------------|
Will we be broken down?



Play/Sing Verse 1 again, then



Ending:

F     G          C/G
Waltz with me my love
F            G          C/G
Oh oh, Waltz with me my love
Tap to rate this tab
 
# A B C D E F G H I J K L M N O P Q R S T U V W X Y Z